Mastodon

Crack The Skye

Mastodon

tabs

by  ANDRSOUZA

save to print version add songbook text version e-mail correct tuner
chordsukulelecavacokeyboardtabbassdrumsharmonicaflute Guitar Pro
close

there isn't a video lesson for this song

chords

Crack The Skye

	  		

Guitar 1 (Brent) 
D|-5-----0--------|-0---------------|----------------| 
A|---6-----6------|-------0-----1---|----------------| 
F|-----7-----7--0-|-----0-----0---0-|----------------| 
C|------------5---|---2-------------|---0-3---5-3--3-| 
G|----------------|---------3-------|-5-----5-----5--| 
A|----------------|-----------------|----------------| 


D|-1-----0---------|-0-----0--------|---0-1---3-1-----| 
A|---3-----3-------|------------0h1-|-3-----3-----3-1-| 
F|-----2-----2---0-|-----0-----0----|-----------------| 
C|-------------3---|---2------------|-----------------| 
G|-----------------|---------3------|-----------------| 
A|-----------------|----------------|-----------------| 


D|-5------0-------0-|-----0-----0-----|-------------------| 
A|---6------6-------|-----------------|-------------------| 
F|-----7------7-7---|---0-----0-----0-|---7---9---10---12-| 
C|------------------|-7-----5---------|-------------------| 
G|------------------|-------------3---|-5---7---8----10---| 
A|-----------------|------------------|-------------------| 

D|------------------| 
A|------------------| 
F|---10---9---7---5-| 
C|------------------| 
G|-8----7---5---3---| 
A|------------------| 


Repeat till 6th bar then: 


D|---0-1---3-1----| 
A|-3-----3--------| 
F|----------------| 
C|-------------0--| 
G|----------------| 
A|----------------| 

Guitar 2 (Bill) 
D|---|------|-----|-------------|------------|-------|----| 
A|---|------|-----|-------------|------------|-------|----| 
F|---|------|-----|-------------|------------|-------|----| 
C|---|------|-----|-------------|------------|-------|----| 
G|-3-|-5----|---3-|-5--7--8--10-|-8--7--5--3-|-5---3-|-5--| 
A|-1-|-3----|---1-|-3--5--6--8--|-6--5--3--1-|-3---1-|-3--| 


D|-------|-------|-------|-------| 
A|-------|-------|-------|-------| 
F|-------|-------|-------|-------| 
C|-4-----|-------|-8-----|-------| 
G|-2-----|-------|-6-----|-------| 
A|-0-----|-------|-4-----|-------| x2 


Part B 

Guitar 1 
D|---------2-------|-0-2-----2-------| 
A|-----------3-----|-----3-----3-----| 
F|-----4-------4---|-------4-----4---| 
C|---4---4---------|-----------------| 
G|-2-------------2-|---------------2-| 
A|-----------------|-----------------| 



D|---------6-------|-0-------6-------| 
A|-------7---7-----|---7-------7-----| 
F|-----8-------8---|-----8-------8---| 
C|---8-----------8-|-------8-------8-| 
G|-6---------------|-----------------|  
A|-----------------|-----------------| x2 

Guitar 2 
D|-------------------|------------------|-----------------| 
A|-------------------|------------------|-----------------| 
F|-------------------|------------------|-----------------| 
C|--------7-9----7---|------------------|-------6-8---6---| 
G|-7-9-10-----10---9-|-10-9-7-5-7-9-4-5-|-6-8-9-----9---8-| 
A|-------------------|------------------|-----------------| 


D|-----------------|-------------------|-------------------| 
A|-----------------|-------------------|-------------------| 
F|-----------------|--------7-9----7---|-------------------| 
C|-----------------|-7-9-10-----10---9-|-10-9-7---7-9------| 
G|-9-8-6-4-6-8-3-4-|-------------------|--------10----9-10-| 
A|-----------------|-------------------|-------------------| 


D|-----------------|-----------------| 
A|-----------------|-----------------| 
F|-------6-8---6---|-----------------| 
C|-6-8-9-----9---8-|-9-8-6---6-8-----| 
G|-----------------|-------9-----8-9-| 
A|-----------------|-----------------| 

Verse (both guitars) 
D|----------------|--------------| 
A|----------------|--------------| 
F|----------------|--------------| 
C|----------------|--------------| 
G|-3-2--3-2--3-2--|-3-2--3-2-3-2-| 
A|-1-0--1-0--1-0--|-1-0--1-0-1-0-| 

D|----------------|--------------| 
A|----------------|--------------| 
F|----------------|--------------| 
C|----------------|--------------| 
G|-6-6--6-6--6-6--|-6-6--6-6-6-6-| 
A|-4-0--4-0--4-0--|-4-0--4-0-4-0-| 

Chorus 
Brent 
D|-------------------------------------------| 
A|-------------------------------------------| 
F|-------------------------------------------| 
C|-------------------------------------------| 
G|-------------------------------------------| 
A|-12-12-0-0-12-12-12-12-0-0-12-12-12-12-0-0-| 

D|---------------------------------------| 
A|---------------------------------------| 
F|---------------------------------------| 
C|---------------------------------------| 
G|---------------------------------------| 
A|-12-12-12-12-0-0-12-12-12-12-0-0-12-12-| 

D|---------------------------------| 
A|---------------------------------| 
F|---------------------------------| 
C|---------------------------------| 
G|---------------------------------| 
A|-8-8-8-8-8-8-8-8-8-8-8-8-8-8-8-8-| 

D|---------------------------------| 
A|---------------------------------| 
F|---------------------------------| 
C|---------------------------------| 
G|---------------------------------| 
A|-8-8-8-8-0-0-8-8-8-8-0-0-8-8-8-8-| 

Bill 
D|---------------------------------| 
A|-0-0-0-0-0-0-0-0-0-0-0-0-0-0-0-0-| 
F|-4-4-4-4-4-4-4-4-6-6-6-6-6-6-6-6-| 
C|---------------------------------| 
G|---------------------------------| 
A|---------------------------------| 


D|---------------------------------| 
A|-0-0-0-0-0-0-0-0-0-0-0-0-0-0-0-0-| 
F|-7-7-7-7-6-6-6-6-4-4-4-4-2-2-2-2-| 
C|---------------------------------| 
G|---------------------------------| 
A|---------------------------------| 

D|-------------------------------------------------| 
A|-0--0--0--0--0--0--0--0--0--0--0--0--0--0--0--0--| 
F|-12-12-12-12-12-12-12-12-11-11-11-11-11-11-11-11-| 
C|-------------------------------------------------| 
G|-------------------------------------------------| 
A|-------------------------------------------------| 

D|---------------------------------| 
A|-0-0-0-0-0-0-0-0-0-0-0-0-0-0-0-0-| 
F|-9-9-9-9-9-9-9-9-7-7-7-7-7-7-7-7-| 
C|---------------------------------| 
G|---------------------------------| 
A|---------------------------------| 

D|---------------------------------| 
A|-0-0-0-0-0-0-0-0-0-0-0-0-0-0-0-0-| 
F|-4-4-4-4-4-4-4-4-6-6-6-6-6-6-6-6-| 
C|---------------------------------| 
G|---------------------------------| 
A|---------------------------------| 

D|---------------------------------| 
A|-0-0-0-0-0-0-0-0-0-0-0-0-0-0-0-0-| 
F|-7-7-7-7-7-7-7-7-9-9-9-9-9-9-9-9-| 
C|---------------------------------| 
G|---------------------------------| 
A|---------------------------------| 

D|-------------------------------------------------| 
A|-0--0--0--0--0--0--0--0--0--0--0--0--0--0--0--0--| 
F|-12-12-12-12-12-12-12-12-14-14-14-14-14-14-14-14-| 
C|-------------------------------------------------| 
G|-------------------------------------------------| 
A|-------------------------------------------------| 

D|------------------------------------| 
A|-0--0--0--0--0--0--0--0--0----------| 
F|-16-16-16-16-16-16-16-16-19v--------| 
C|------------------------------------| 
G|------------------------------------| 
A|------------------------------------| 


Verse 

Chorus 

Interlude riff 
D|------------------|---------------| 
A|------------------|-------0-------| 
F|-8-9-11-12-8------|-----2---2p0---| 
C|-8-9-11-12-8----0-|-4-5---------4-| 
G|-6-7-9--10-6------|---------------| 
A|--------------3---|---------------| 

D|---------------------|---------------| 
A|---------------------|-------0-------| 
F|-8-9-11-12-12-8------|-----2---2p0---| 
C|-8-9-11-12-12-8----0-|-4-5---------4-| 
G|-6-7-9--10-10-6------|---------------| 
A|-----------------3---|---------------| 


Verse 

Chorus 

Interlude riff 

Solo 
LOOOOOTS of legato stuff, try out which combination works 
best for you 
D|-----|----------| 
A|-5---|-5---5----| 
F|-7b--|---7--7---| 
C|-----|----------| 
G|-----|----------| 
A|-----|----------| 


D|-12--12--|-12---12---12---12----|----------------| 
A|-15b-15b-|---15b--15b--15b---15b|----------------| 
F|---------|----------------------|-------6--7--9--| 
C|---------|----------------------|-9---9----------| 
G|---------|----------------------|----------------| 
A|---------|----------------------|----------------| 


D|-----------------------------------------------------| 
A|-----------------------------------------------------| 
F|-11-12-11h12p11----11--------------------------------| 
C|----------------14----14p12h14p12p11h12p11-----------| 
G|-------------------------------------------14p12p11/-| 
A|-----------------------------------------------------| 

D|----------------| 
A|----------------| 
F|----------------| 
C|-------3--4--6--| 
G|-6---6----------| 
A|----------------| 

D|-----------------------------------| 
A|-----------------------------------| 
F|-3-4-3h4p3---3---------------------| 
C|-----------6---6p4h6p4p3---3h4h6h7-| 
G|-------------------------6---------| 
A|-----------------------------------| 

D|---------------| 
A|---------------| 
F|---------------| 
C|------6--7--9--| 
G|-9-------------| 
A|---------------| 


D|-----------------------------------------| 
A|-----------------------------------------| 
F|-11-12-11h12p11/9h11p7h9p7---7-----------| 
C|---------------------------9---9/7p6p4h6-| 
G|-----------------------------------------| 
A|-----------------------------------------| 

D|---------------| 
A|---------------| 
F|---------------| 
C|-8----8--9--11-| 
G|---------------| 
A|---------------| 



D|---------------------------------------------------------| 
A|---------------------------------------------------------| 
F|8h10p8--8-----8------------------------------------------| 
C|------11-11p10-11p10h11p10p8-----------------------------| 
G|-----------------------------11p10p8h10h8---8------------| 
A|------------------------------------------11--11-10-8-10-| 

Bending part again 

D|--------------| 
A|--------------| 
F|--------------| 
C|------------2-| 
G|-2----4--5----| 
A|--------------| 

D|-----------------------------------|---------------| 
A|-----------------------------------|---------------| 
F|-----------------------------------|---------------| 
C|-4h5p4-----5---4-------------------|------3--4--6--| 
G|-------7p5---5---7p5p4h5h7p5p4-----|-6-------------| 
A|-------------------------------7-5-|---------------| 

D|-------------------------------------|--------------| 
A|-------------------------------------|--------------| 
F|-------------------------------------|------6--7--9-| 
C|-8h9p8-----9---8-------------------8-|-9------------| 
G|------11p9---9---11p9p8/6h8h9/11h12--|--------------| 
A|-------------------------------------|--------------| 


D|----------------------------------------------------| 
A|----------------------------------------------------| 
F|-11h12p11-------12----11----------------------------| 
C|----------14-12----12----14p12p11----------11h12h14-| 
G|----------------------------------14p12h14----------| 
A|----------------------------------------------------| 

D|-----------------| 
A|-----------------| 
F|-----------------| 
C|--------8--9--11-| 
G|-11b-------------| 
A|-----------------| 

D|-------------------------------------------------------| 
A|-------------------------------------------------------| 
F|8h10p8---8-----8---------------------------------------| 
C|-------11-11p10-11p10h11p10p8--------------------------| 
G|-----------------------------11p10p8h10p8--8-----------| 
A|-----------------------------------------11-11p10p8h10-| 

Riff B 

Solo 2nd part, the weird stuff. As mentioned above I just copied the GuitarPro file, this part isnt completely right. Im sorry  
D|--------------|-------------------------| 
A|--------------|-------------------------| 
F|--------------|-8h9h11p9p8--------------| 
C|---9-----9-11-|------------11-11--9--8--| 
G|--------------|-------------------------| 
A|--------------|-------------------------| 

D|--------------------------------------------------| 
A|--------------------------------------------------| 
F|-------------------------14p12p11h12/11p9-9h11h12-| 
C|-8h9h11p9/11h12p11/12h14--------------------------| 
G|--------------------------------------------------| 
A|--------------------------------------------------| 


D|------------------------------------------------------| 
A|-9h11h12-11h12h14-12h14h15-14h15h17-15h17h19-17h19h20-| 
F|------------------------------------------------------| 
C|------------------------------------------------------| 
G|------------------------------------------------------| 
A|------------------------------------------------------| 

Reverse delay and all sorts of stuff 
D|------/12------/12------| 
A|------------------------| 
F|-11v--------------------| 
C|------------------------| 
G|------------------------| 
A|------------------------| 

    T 
D|--19-17p14------------| repeat till end 
A|----------------------| 
F|----------------------| 
C|----------------------| 
G|----------------------| 
A|----------------------| 

Solo Rhythm Guitar 
D|---------------0-|--------0-------| 
A|-----------------|--------------0-| 
F|-----6---7-6-----|-7-6------6-----| 
C|---0---0-----0---|------0---------| 
G|-5---------------|----5-------0---| 
A|-----------------|----------------| 


D|---------0-------|-----0-----0-------| 
A|-----2-----2-----|---2---2-----2-----| 
F|---3---3-----3---|-3-------------3/9-| 
C|-----------------|-------------------| 
G|-1-------------1-|---------1---------| 
A|-----------------|-------------------| 

D|--------0---0---0-|-------0---0---0-| 
A|----------6--6----|-7---7---6---6---| 
F|------7-----------|---8-------------| 
C|----8-------------|-----------------| 
G|-10---------------|-----------------| 
A|------------------|-----------------| 

D|-----------------|-----------------| 
A|---------0-------|-----------0-----| 
F|-----------------|-0---0---------0-| 
C|-----6-----6-----|-------6-----6---| 
G|---4---4-------4-|---4-------------| 
A|-2-----------2---|---------2-------| 

D|---------2-------|-0-2-----2-------|\ 
A|-----------3-----|-----3-----3-----| | 
F|-----4-------4---|-------4-----4---| | 
C|---4---4---------|-----------------| | 
G|-2-------------2-|---------------2-| | 
A|-----------------|-----------------| | 
                                       } 1st = x2  
D|---------6-------|-0-------6-------| | 2nd = x4 
A|-------7---7-----|---7-------7-----| | 
F|-----8-------8---|-----8-------8---| | 
C|---8-----------8-|-------8-------8-| | 
G|-6---------------|-----------------| | 
A|-----------------|-----------------| / 

Repeat whole section 

2nd solo part rhythm guitar 
D|-------------------------|-------------------| 
A|-------------------------|-------------------| 
F|-------4--------4--------|-4--6--7--6--4--3--| 
C|-------4--------4--------|-4--6--7--6--4--3--| 
G|-2--2--2--2--2--2--2--2--|-2--4--5--4--2--1--| 
A|-0--0-----0--0-----0--0--|-------------------| 

D|-------------------------|---------------------| 
A|-------------------------|---------------------| 
F|-------4--------4--------|-4--6--7--9--11--12--| 
C|-------4--------4--------|-4--6--7--9--11--12--| 
G|-2--2--2--2--2--2--2--2--|-2--4--5--7--9---10--| 
A|-0--0-----0--0-----0--0--|---------------------| x2 


Chorus 

Verse 

Chorus 

Intro 

End on 

D|----------| 
A|----------| 
F|----------| 
C|----------| 
G|-3--5-----| 
A|-1--3-----| 
		  

Full key step upFull key step up
Half key step upHalf key step up
Half key step downHalf key step down
Full key step downFull key step down
hide glossary

See also:

tabs Alice Cooper - No More Mr. Nice Guy tabs Marilyn Manson - Coma White (Acoustic) tabs Pantera - Hollow tabs Motley Crue - Home Sweet Home tabs Slipknot - Til We Die tabs Rainbow - Long Live Rock N' Roll
e-chords

Other versions:

tabs Mastodon - Crack The Skye
auto scroll beats size up size down change color hide chords drawings
tab show chords e-chords YouTube Clip e-chords hide all tabs e-chords go to top tab

share