Mago De Oz

La Danza Del Fuego

Mago De Oz

tabs Beginner beginner

by  IRONMEJIAB

save to print version add songbook text version e-mail correct tuner
chordsukulelecavacokeyboardtabbassdrumsharmonicaflute Guitar Pro
close

there isn't a video lesson for this song

chords

La Danza Del Fuego

Year: 2002 - Album: Costa Da Morte

	  		
intro (violín) 
X2 (en la 2a vez con acordes distorsionados) 
--------------------------------------------------------- 
--------------------------------------------------------- 
--7-9-10--9-7--------7-9-7----7-9-10--9-7-----9-7-----7-- 
--------------10--10----------------------10-------10---- 
--------------------------------------------------------- 
--------------------------------------------------------- 
 
--------------------------------------------------------- 
------------------------------------------8--10-8-------- 
--7-9-10--9-7--------7-9-7----7-9-10--9-7----------9-7~- 
--------------10--10------------------------------------- 
--------------------------------------------------------- 
--------------------------------------------------------- 
 
Versa 1 
 
  DM             AM 
cuanto más he de esperar 
 
  DM              AM 
cuanto más he de buscar 
 
  F           C 
para poder encontrar 
 
  F           C        DM 
la luz que sé que hay en mi 
 
  DM           AM 
he vivido en soledad 
 
  DM           AM 
rodeado de multitud 
 
  F            C 
nunca he conseguido amar 
 
  F            C     DM 
pues no me quiero ni yo 
 
violín (lento) 
X3 
---------------------------------------------------------- 
---------------------------------------------------------- 
--10-7-----10-7------------9-------9---------------------- 
-------7--------7------------10------10------------------- 
-----------------------------10------10------------------- 
---------------------------------------------------------- 
 
Después 
---------------------------------------------------------- 
---------------------------------------------------------- 
--------10---------------9--7----10-9-7------------------- 
------------10--7----10----------------------------------- 
------------------10-------------------------------------- 
---------------------------------------------------------- 
 
coro 1 
-cuando veas una estrella fugaz 
-guárdala en tu corazón 
-es el alma de alguien que consiguió 
-dar a los suyos su amor 
---------------------------------------------------------- 
---------------------------------------------------------- 
----10-10----------------------7--7----------------------- 
----10-10----10-10----10-10----7--7----------------------- 
----8--8-----10-10----10-10----5--5----------------------- 
-------------8--8-----8--8-------------------------------- 
 
violín parte 2 
----------------15---------------------------------------- 
-15-17-18-18-18----18-17-15---------------15-17-15-------- 
----------------------------17--17-17-17------------------ 
---------------------------------------------------------- 
---------------------------------------------------------- 
---------------------------------------------------------- 
 
----------------15---------------------------------------- 
-15-17-18-18-18----18-17-15------17-15-----17-15------15-- 
----------------------------17---------17--------17------- 
---------------------------------------------------------- 
---------------------------------------------------------- 
---------------------------------------------------------- 
 
----------------15---------------------------------------- 
-15-17-18-18-18----18-17-15---------------15-17-15-------- 
----------------------------17--17-17-17------------------ 
---------------------------------------------------------- 
---------------------------------------------------------- 
---------------------------------------------------------- 
 
----------------15-------15-17--17-15--------------------- 
-15-17-18-18-18----18-17--------------18--17-18-17-15----- 
---------------------------------------------------------- 
---------------------------------------------------------- 
---------------------------------------------------------- 
---------------------------------------------------------- 
 
verso 2 
-si eres capaz de devolver 
-con una sonrisa una traición 
-Si eres capaz de dar tu mano a quien 
con la suya te señalo 
----------------------------------------------------------- 
----------------------------------------------------------- 
----7--7--------------------------------------------------- 
----7--7----8--8----10--10----10--10----------------------- 
----5--5----8--8----10--10----10--10----------------------- 
------------6--6-----8---8-----8---8----------------------- 
 
-no eches raices en un sitio muévete 
pues no eres un arbol para eso tienes 2 pies  
-el hombre mas sabio es el que sabe que su hogar 
-es tan grande como pueda imaginar 
----------------------------------------------------------- 
----------------------------------------------------------- 
---------------------5--5----5--5-------------------------- 
----3--3----3--3-----5--5----5--5-------------------------- 
----3--3----3--3-----3--3----3--3-------------------------- 
----1--1----1--1------------------------------------------- 
 
coro 2 (igual) 
 
*parte 2 del violin 
 
Parte 3 de violin 
---------------------------------15------------------------ 
--18-15----------15--18-15----18----18-17-15----15-17------ 
--------14----14-----------14----------------17------------ 
-----------15---------------------------------------------- 
----------------------------------------------------------- 
----------------------------------------------------------- 
 
---------------------------------12------------------------ 
--15----------------15--------15----15-13----------13------ 
-----14----------14----14-----------------15-14-15--------- 
--------15-12-15----------15------------------------------- 
----------------------------------------------------------- 
----------------------------------------------------------- 
 
-------------15-------------------------------------------- 
---------18------17--13----15-15-15-15-13-15--------------- 
----------------------------------------------------------- 
----------------------------------------------------------- 
----------------------------------------------------------- 
----------------------------------------------------------- 
 
*solo de guitarra 
 
-el mejor dia es en el que el alma tiene dos pies 
-no olvides lo aprendido, no dejes de comprender 
-rodeate de buenos y tu lo pareceras 
-rodeate de sabios y algo en ti se quedará 
( esto con palm muting ) 
X2 
----------------------------------------------------------- 
----------------------------------------------------------- 
----------------------------------------------------------- 
----------------------------------------------------------- 
----3--5-5-5--3--5-5-5--5--3-3-3--3--5~~------------------- 
----------------------------------------------------------- 
 
----------------------------------------------------------- 
----------------------------------------------------------- 
----10--9--7--5----5-5-5-5-5-5-5--------------------------- 
----10--9--7--5----5-5-5-5-5-5-5--------------------------- 
----8---7--5--3----3-3-3-3-3-3-3--------------------------- 
----------------------------------------------------------- 
 
*coro 3 (X2)(igual que los demás) 
en la segunda vez entra la parte 2 de violin 
 
*parte 3 del violin 
-luz  en la ocuridad!!!!!!!!!!!!!!! 
 
 

		  

Full key step upFull key step up
Half key step upHalf key step up
Half key step downHalf key step down
Full key step downFull key step down
hide glossary

See also:

tabs La Oreja de Van Gogh - V.s.o. tabs Avalanch - Aquí Estaré tabs Amaral - Salir Corriendo tabs Ana Gabriel - Soledad tabs Amaral - Cabecita Loca tabs Mago De Oz - Dame Tu Amor
e-chords

Other versions:

tabs Mago De Oz - La Danza Del Fuego tabs Rata Blanca - La Danza Del Fuego
auto scroll beats size up size down change color hide chords drawings
tab show chords e-chords YouTube Clip e-chords hide all tabs e-chords go to top tab

share