Mago De Oz

Dame Tu Amor

Mago De Oz

tabs Easy easy

by  IRONMEJIAB

save to print version add songbook text version e-mail correct tuner
chordsukulelecavacokeyboardtabbassdrumsharmonicaflute Guitar Pro
close

there isn't a video lesson for this song

chords

Dame Tu Amor

Year: 2004 - Album: Belfast

	  		Dame Tu Amor           Carlos Eduardo Mejia B. 
Mago de Oz              (Medellin,Colombia) 
Belfast                   [email protected] 
 
/:Slide 
H:Hamer on 
P:pull of 
 
Intro: 
Guitarra 1 
 
|--------------------------------------------------------| 
|--------------------------------------------------------| 
|-------------9-----------9-----------9-11-9/8/9-9-------| 
|--11*--11-12---11--11-12---11--11-12--------------12-11-| 
|--------------------------------------------------------| 
|--------------------------------------------------------|X2 
 
Guit 2 
A5 F#5 D5 E5 
 
-verso- 
 
A5           F#5             D5           E5 
Hace tiempo que perdi con el diablo la partida 
A5         F#5          D5        E5 
marco mis cartas y mi boca con carmin. 
A5          F#5            D5            E5 
Hace tiempo que vivir se me pone cuesta arriba 
A5     F#        D5         E5 
y necesito negociar mi rendición. 
 
 
-Puente- 
              F# E F# E E F# E 
Deudas de amor 
      D5    E5 
financié mi alma 
	      F#EF#EEF#E 
deudas de amor 
      D5            E5 
embargué mis sueños todos mis sueños. 
 
 
-Estribillo- X2 
A5            F#5              E5 
Dame tu amor dame tu amor esta noche y podré ganar 
 
-Intro- 
 
-Verso- 
A5                 F#5              D5              E5 
Hubo un tiempo en que crei quee el primer beso era un contrato 
A5              F#         D5              E5 
que con cada abrazo yo firmaba una declaración 
A5                F#         D5           E5 
pero pasó de refilón otro amor bajo tu ventana 
A5               F#         D5         E5 
y echaste el cierre por traspaso de pasión. 
 
Solo:A5-F#5-D5 
 
|----------------------------------------------------------------------------| 
|--------------------------------------------------------11-9--------9-------| 
|-------------------------------------------------------------12-11---12-11-9| 
|--16*-18*-20*-20p21h20p21h20p21h20----18-20-16-18-14------------------------| 
|----------------------------------------------------------------------------| 
|----------------------------------------------------------------------------| 
 
-Puente- 
 
-Estribillo- 
 

		  

Full key step upFull key step up
Half key step upHalf key step up
Half key step downHalf key step down
Full key step downFull key step down
hide glossary

See also:

tabs Mago De Oz - Ancha es castilla tabs La Oreja de Van Gogh - V.s.o. tabs Ana Gabriel - Fgbh Gj tabs Avalanch - Torquemada tabs Avalanch - La Llama Eterna tabs Mago De Oz - Pensando En Ti
e-chords

Other versions:

tabs Mago De Oz - Dame Tu Amor
auto scroll beats size up size down change color hide chords drawings
tab show chords e-chords YouTube Clip e-chords hide all tabs e-chords go to top tab

share