Avalanch

Torquemada

Avalanch

tabs

by  LUCICAMARGO

save to print version add songbook text version e-mail correct tuner
chordsukulelecavacokeyboardtabbassdrumsharmonicaflute Guitar Pro
close

there isn't a video lesson for this song

chords

Torquemada

(Llanto de un héroe)

	  		Esta es la pequeña introduccion del teclado. 


E||------------------|--18-6-16-6-13-6-14-6-16-6-13-6-14-6-16-6-| 
B||------------------|------------------------------------------| 
G||------------------|------------------------------------------| 
D||------------------|------------------------------------------| 
A||------------------|------------------------------------------| 
E||------------------|------------------------------------------| 



--19-6-18-6-16-6-18-6-14-6-16-6-13-6-----| 
-------------------------------------19--| 
-----------------------------------------| 
-----------------------------------------| 
-----------------------------------------| 
-----------------------------------------| 



--18-6-16-6-13-6-14-6-16-6-13-6-14-6-16-6-| 
------------------------------------------| 
------------------------------------------| 
------------------------------------------| 
------------------------------------------| 
------------------------------------------| 



--19-6-18-6-16-6-18-6-14-6-16-6-------| 
--------------------------------18----| 
--------------------------------------| 
--------------------------------------| 
--------------------------------------| 
--------------------------------------| 



--18-6-16-6-13-6-14-6-16-6-13-6-14-6-16-6-| 
------------------------------------------| 
------------------------------------------| 
------------------------------------------| 
------------------------------------------| 
------------------------------------------| 



--19-6-18-6-16-6-18-6-14-6-16-6-13-6-----| 
-------------------------------------19--| 
-----------------------------------------| 
-----------------------------------------| 
-----------------------------------------| 
-----------------------------------------| 



--18-6-16-6-13-6-14-6-16-6-13-6-14-6-16-6-| 
------------------------------------------| 
------------------------------------------| 
------------------------------------------| 
------------------------------------------| 
------------------------------------------| 



--19-6-18-6-16-6-18-6-14-6-16-6-------|--30----------------| 
--------------------------------18----|--23----------------| 
--------------------------------------|--------------------| 
--------------------------------------|--------------------| 
--------------------------------------|--------------------| 
--------------------------------------|--------------------| 



--28----------------|--26----------------|--25----------------| 
--21----------------|--19----------------|--18----------------| 
--------------------|--------------------|--------------------| 
--------------------|--------------------|--------------------| 
--------------------|--------------------|--------------------| 
--------------------|--------------------|--------------------| 



--30----------------|--28----------------|--26----------------| 
--23----------------|--21----------------|--19----------------| 
--------------------|--------------------|--------------------| 
--------------------|--------------------|--------------------| 
--------------------|--------------------|--------------------| 
--------------------|--------------------|--------------------| 



--25----------------| 
--18----------------| 
--------------------| 
--------------------| 
--------------------| 
--------------------|
		  

See also:

tabs Mago De Oz - Hazme Un Sitio Entre Tu Piel tabs Pignoise - Sigo Llorando Por Ti tabs Mago De Oz - Pensando En Ti tabs Mago De Oz - Jesus De Chamberí tabs Mago De Oz - Santo Grial tabs Ska-p - Chupones
e-chords

Other versions:

tabs Avalanch - Torquemada
auto scroll beats size up size down change color hide chords drawings
tab show chords e-chords YouTube Clip e-chords hide all tabs e-chords go to top tab

share