Mago De Oz

Todo Irá Bien

Mago De Oz

tabs

by  IRONMEJIAB

save to print version add songbook text version e-mail correct tuner
chordsukulelecavacokeyboardtabbassdrumsharmonicaflute Guitar Pro
close

there isn't a video lesson for this song

chords

Todo Irá Bien

Year: 2004 - Album: Belfast

	  		3:11) ? Intro de guitarra electrica  
E|---------------|----------------------------7h10p7----7-------------------------------  
B|---------------|--10b12--12b10hp7h10~--7h10--------10---10b12---------------------10--  
G|---------------|-----------------------------------------------11b9-7-9-7---7-9b11----  
D|---------------|----------------------------------------------------------9-----------  
A|----------2-4--|----------------------------------------------------------------------  
E|--0-2-4-5------|----------------------------------------------------------------------  
  
----------------------------------------------------|  
---8-7h8p7-----------------------------------------|  
------------9-7-------7-7---------------------------|  
------------------7h9------5h7p5p4-4h5-4h5p4------|  
-----------------------------------------------7-5--|  
----------------------------------------------------|  
  
(4:29) ? Solo de salida  
|--------------------------------11-----------------------------------------------------  
|---7--6----9b11-11b9p7h9p7--/11----14b16b-b14-12-12-11-11h12-12------------------------  
|--------6-------------------------------------------------------13-11-13~-11h13p11p10--  
|---------------------------------------------------------------------------------------  
|---------------------------------------------------------------------------------------  
|---------------------------------------------------------------------------------------  
  
-------------------------------------------------------------14-11----11---------------  
-------------------------------------------------------------------14-----14-11-14p11--  
---------------------------------------------------------------------------------------  
---11----------------------------11---11/13	p9h11p9p8--------------------------------  
------11---6-9-6-/8-11-8-/9---/9----9-------------------9-9----------------------------  
---------------------------------------------------------------------------------------  
  
----------------------------------------------|  
------11------------------------14------------|  
---13----13-11-13p11-------11~--13b15b13-11~--|  
---------------------13p11--------------------|  
----------------------------------------------|  
----------------------------------------------|  
  
  
  
  
 D A Bm   G      D      A  
Duermete que yo estoy aqui  
 G       A     Bm      G   D  A   D  
La luna te guiara, te acunara su voz  
D   A   Bm        G   D    A  
Todo Irá Bien  
Mago de Oz  
  
  
Suena y ve hacia donde el sol  
  G    A      Bm      G     D  A  D  
Despierte detras, rayos color de amor  
  
D   A   Bm        G   D    A  
  
  
F#m           Bm  
No mires atras  
F#m            Bm  
Ella estara bien  
F#m           Bm   F#m          Bm  
Su angel eres tu, nunca te olvidara  
  
  
 D  A  Bm    G   D   A  
Esperame tengo que vivir  
 G             A             Bm     G     D   A D  
Que al rio del sueno pronto ire a nadar junto a ti  
D    A  Bm    G     D   A  
Llorame, al pensar en ti  
 G       A  Bm    G      D   A   D  
Lagrimas de soledad, perfumame en ti  
  
D  A  Bm    G   D   A  
G  A  Bm   G     D     A       D  
  
  
  
 D    A     Bm         G        D                A  
No descansare, no hasta que tu recuerdo viva en mi  
G                   A       Bm       G       D     A  D  
Dame fuerzas pues debo continuar aunque sin ti, quiero vivir  
D     A   Bm        G     D             A  
Duermete, duerme para y descansa sin temor  
G                 A            Bm       G    D     A     D  
Que al despertarte ya no habra dolor y todo ira bien, mi amor  
G                 A          Bm       G    D      A       D  
Que al despertarte te arruya el amor y todo ira bien, mi amor.  
  
  


		  

Full key step upFull key step up
Half key step upHalf key step up
Half key step downHalf key step down
Full key step downFull key step down
hide glossary

See also:

tabs Mago De Oz - Ancha es castilla tabs La Oreja de Van Gogh - V.s.o. tabs Ana Gabriel - Fgbh Gj tabs Avalanch - Torquemada tabs Avalanch - La Llama Eterna tabs Mago De Oz - Pensando En Ti
e-chords

Other versions:

tabs Mago De Oz - Todo Irá Bien
auto scroll beats size up size down change color hide chords drawings
tab show chords e-chords YouTube Clip e-chords hide all tabs e-chords go to top tab

share