Lynyrd Skynyrd

On the hunt

Lynyrd Skynyrd

tabs Beginner beginner

by  EUROPEU

save to print version add songbook text version e-mail correct tuner
chordsukulelecavacokeyboardtabbassdrumsharmonicaflute Guitar Pro
close

there isn't a video lesson for this song

chords

On the hunt

Year: 1990 - Album: Collector's Edition

	  		Intro Rhythm  
e|-------------------------------------|-----------------------------------| 
B|-------------------------------------|-----------------------------------| 
G|--4-----------------------------x----|--4--x-----------------------------| 
D|--4----------4------2-----------x----|--4--x--------4-------2------------| 
A|--2---2--4/5---5/4--0----------------|--2----2?4/5-----5/4--0------------| 
E|-----------------------4b-r4--0---0--|-----------------------------------| 
 
Verse Rhythm       play over and over 
|-------------------------------------|------------------------------| 
|-------------------------------------|------------------------------| 
|--4----------------------------------|--4---x-----------------------| 
|--4----------4------2----------------|--4---x--------4-------2------| 
|--2---2--4/5---5/4--0---------2------|--|--2------2?4/5----5/4--0---| 
|-----------------------4b-r4--0------|------------------------------| 
 
 
  I know who you are... 
e|-------------------------------------------------------------------------| 
B|-------------------------------------------------------------------------| 
G|--9-------------4------------------5-------------------------------------| 
D|--9-------------4------------------5---2---------------------------------| 
A|--7-------------2------------------7---0--0-0-0-0?2/4\2------------------| 
E|--0--------------------------------7-------------------------------------| 
 
  Never put you down... 
e|-------------------------------------------------------------------------| 
B|-------------------------------------------------------------------------| 
G|-9-----------------4---------------5-------------------------------------| 
D|-9-----------------4---------------5-------2-----------------------------| 
A|-7-----------------2---------------7-------0----0------------------------| 
E|-0---------------------------------7----------------3---3b---------------| 
 
 
 
 
 
 
Intro Lead 
e|-----------------------| 
B|----7--7---7-/-5-\-7---| 
G|----4b-4b?r4-/-2-\-4---| 
D|-----------------------| 
A|-----------------------| 
E|-----------------------| 
 
 
 
First interlude 
e|------7-------------------------------------------10b?12b-r12------------| 
B|-------7-10/12----12b14--14?12b14-14-14-12p10--12------------------------| 
G|----9b-------------------------------------------------------------------| 
D|-------------------------------------------------------------------------| 
A|-------------------------------------------------------------------------| 
E|-------------------------------------------------------------------------| 
 
Solo 
e|-------------------------------------------------------------------------| 
B|-------------------------------------------------------------------------| 
G|--4b6-6-4p2-4b6-6r4----4----4/7----7/9---9b11-9/12?14b16-----------------| 
D|-------------------------------------------------------------------------| 
A|-------------------------------------------------------------------------| 
E|-------------------------------------------------------------------------| 
 
e|----------17-19-19-------------17b19--19--19r17---------------------------| 
B|15?17b19-----------17b19-19r17------------------15------------------15----| 
G|---------------------------------------------------16b18--14-16--16---16/9| 
D|--------------------------------------------------------------------------| 
A|--------------------------------------------------------------------------| 
E|--------------------------------------------------------------------------| 
 
e|---------------------------------------------10--10--10------------------| 
B|------------------------------7b9----------10--10--10------10h12-12p10---| 
G|-9b11--11?11r9p7--------------7b9-------/11------------------------------| 
D|-----------------9-7--9-9-7-9--------------------------------------------| 
A|-------------------------------------------------------------------------| 
E|-------------------------------------------------------------------------| 
 
e|------------------------------10-----------------------------------------| 
B|-12b14?12b14---14r12?12p10-12----12-(12)/-17b19?17b19-17p15--------------| 
G|------------------------------------------------------------16-14--------| 
D|-------------------------------------------------------------------------| 
A|-------------------------------------------------------------------------| 
E|-------------------------------------------------------------------------| 
 
e|-------------------------7-----------------------------------------------| 
B|---------7--------7-7-10---7-10b12--12?12r10-10p7------------------------| 
G|--7-7--7-7-7-9b11----------------------------------9b11-11r9p7---7-------| 
D|-----9----9----------------------------------------------------9---------| 
A|-------------------------------------------------------------------------| 
E|-------------------------------------------------------------------------| 
 
 
e|-------------------------------------------------------------------------| 
B|--7-10---7-----------------------------------7---------------------------| 
G|-------9---7-9---7-------------------------------10--9-------------------| 
D|---------------9---7--9---7------------/9--------------------------------| 
A|------------------------9---7--5-----------------------------------------| 
E|---------------------------------7---------------------------------------| 
 
e|-------10---------------10--------10-------10----|                            
B|-------------------------------------10------10--|                            
G|--9b11----11r9-----9b11----11r9---------9--------|   
D|-------------------------------------------------|  
A|-------------------------------------------------|  
E|-------------------------------------------------|  
 
e|--------12----------------12-----------12--------------------10--------10| 
B|-------------------------------------------------------------------------| 
G|-/11b13----13r11----11b13----13r11--------11b13r11-11/9?9b11---11-9b11---| 
D|-------------------------------------------------------------------------| 
A|-------------------------------------------------------------------------| 
E|-------------------------------------------------------------------------| 
 
e|------------------------------------------------------------17b19--------| 
B|-----------------------------------15-17b19-19r17--15----15--------------| 
G|--9/7---7/11---11/14---14/16--16----------------------16-----------------| 
D|-------------------------------------------------------------------------| 
A|-------------------------------------------------------------------------| 
E|-------------------------------------------------------------------------| 
 
e|17b19-19?--17b19-19?-17b19-19---19r17-19r17---17b19---19r17---------------| 
B|------------------------------------------------------------15------------| 
G|---------------------------------------------------------------16b18-18r16| 
D|--------------------------------------------------------------------------| 
A|--------------------------------------------------------------------------| 
E|--------------------------------------------------------------------------| 
 
e|-------------------------------------------------------------------------| 
B|---------------15--------------------------------------------------------| 
G|-14--16-16---------16/2?2\19--7?7/6----6/4---4/2-------------------------| 
D|-------------------------------------------------------------------------| 
A|-------------------------------------------------------------------------| 
E|-------------------------------------------------------------------------| 
  
 

		  

See also:

tabs Janis Joplin - Trouble in mind tabs Journey - Any Way You Want It tabs Janis Joplin - Move Over tabs Johnny Cash - Hurt tabs Jimi Hendrix - Voodoo Child tabs Johnny Cash - Ghost Riders In The Sky (solo)
e-chords

Other versions:

tabs Lynyrd Skynyrd - On the hunt
auto scroll beats size up size down change color hide chords drawings
tab show chords e-chords YouTube Clip e-chords hide all tabs e-chords go to top tab

share