Journey

Don't Stop Believin'

Journey

tabs Expert expert

save to print version add songbook text version e-mail correct tuner
chordsukulelecavacokeyboardtabbassdrumsharmonicaflute Guitar Pro
close
dont-stop-believin-by-journey

there is a video lesson for this song

chords

Don't Stop Believin'

Year: 1988 - Album: Greatest Hits

(Jonathan Cain/Steve Perry/Neal Schon)

	  		 
/    = slide up 
\    = slide down 
b    = bend (whole step) 
b^   = bend (1/2 step) 
b^^  = bend (1 1/2 steps) 
pb   = pre-bend 
r    = release-bend 
r^   = release-bend half-step 
h    = hammer-on 
p    = pull-off 
~    = Vibrato 
*    = Natural Harmonic 
#(#) = Trill 
**   = Artificial Harmonic 
x    = Muted String (Palm Muting) 
 
cifrada por Pedro Lobo - [email protected] 
 
Intro: Só piano, mas a linha de baixo é a seguinte: 
 
e|-------------------------------------------------------| 
B|-------------------------------------------------------| 
G|-------------------------------------------------------| 
D|-------------------------------------------------------| -> várias vezes 
A|--------2--4-6-4--6-7----6-7--------2--4-6-4-------6-7-| 
E|-0--2-4---------------5------0--2-4----------4--5------| 
 
Harmônico 1          Harmônico 2 
 
e|------|            e|--5*--| 
B|--5*--|            B|------| 
G|------|            G|------| 
D|------|            D|------| 
A|------|            A|------| 
E|------|            E|------| 
 
 
Riff 1 
 
e|-------------| 
B|-17-16-------|  -> Várias vezes. No início é abafado e devagar, e vai 
G|-------18-16-|     acelerando aos poucos até ficar muito rápido. 
D|-------------| 
A|-------------| 
E|-------------| 
 
Riff 2 
 
e|--19b--| 
B|--19b--| 
G|-------| 
D|-------| 
A|-------| 
E|-------| 
 
Riff 3 
 
    A5        A5        E5        E5          
e|----------------------------------------| 
B|--16--14----16--17----16--17----16--17--| 
G|--16--14----16--16----16--16----16--16--| -> 4 vezes, mas na 4ª vez não faz a parte do E5 
D|--16--14----16--18----16--18----16--18--| 
A|----------------------------------------| 
E|----------------------------------------| 
 
 
Riff 4 
 
   E5         B5      C#5       A5       E5        B5       Ab5 A5 
e|----------------------------------------------------------------| 
B|---5-------------------------------------5----------------------| 
G|---4-------------------------------------4----------------------| 
D|-------------------1------1-2------1-2-------------------1------| 
A|------------2--2-4---4--4-----0--4----------------2--2-4---6--7-| 
E|-0----0-2-4----------------------------0----0-2-4----------4--5-| 
 
 
Just a small town girl 
Living in a lonely world 
					*Harmônico 1 
She took the midnight train going anywhere 
Just a city boy 
Born and raised in South Detroit 
					*Harmônico 2 
He took the midnight train going anywhere 
 
Riff 1 e Riff 2 
 
A singer in a smoky room 
A smell of wine and cheap perfume 
For a smile they can share the night 
It goes on and on and on and on 
 
*Riff 3 
A5 (abafado)        E5 (abafado)   
Strangers, waiting, up and down the boulevard 
A5 (abafado)                    E5 (abafado) 
Their shadows searching in the night 
A5 (abafado)        E5 (abafado) 
Streetlight people, living just to find emotion 
A5 (abafado)             B5 E5  B5 A5 
Hiding somewhere in the night 
 
*Riff 4 
E                B 
Working hard to get my fill 
C#m         A 
Everybody wants a thrill 
E                   B 
Paying anything to roll the dice 
     Abm        A 
Just one more time 
E               B 
Some will win, some will lose 
C#m                A 
Some were born to sing the blues 
E             B 
Oh the movie never ends 
        Abm           A 
It goes on and on and on and on 
 
*Riff 3 
A5 (abafado)        E5 (abafado)   
Strangers, waiting, up and down the boulevard 
A5 (abafado)                    E5 (abafado) 
Their shadows searching in the night 
A5 (abafado)        E5 (abafado) 
Streetlight people, living just to find emotion 
A5 (abafado)             B5 E5  B5 A5 
Hiding somewhere in the night 
 
Solo: Riff 4 
 
Riff 4 até acabar 
Don't stop believing 
Hold on to that feeling 
Streetlight people ohhh..... 
Don't stop believing 
Ohhh.... yeah.... 
Streetlight people ohhh..... 
Don't stop believing 
Hold on to that feeling 
Streetlight people ohhh..... 
 
_______________________________________________________ 
Contribuição: Pedro Talarico de Paula Lobo([email protected]) 

		  

Full key step upFull key step up
Half key step upHalf key step up
Half key step downHalf key step down
Full key step downFull key step down
auto scroll beats size up size down change color hide chords drawings
tab show chords e-chords YouTube Clip e-chords hide all tabs e-chords go to top tab

share