Lynyrd Skynyrd

On the hunt

Lynyrd Skynyrd

bass

by  VSWORLD

save to print version add songbook text version e-mail correct tuner
chordsukulelecavacokeyboardtabbassdrumsharmonicaflute Guitar Pro
close

there isn't a video lesson for this song

chords

On the hunt

Year: 1990 - Album: Collector's Edition

	  		



     W                   E   Q    E  E  Q.        Q     Q    H          
G||-------------------|-----11-----------------|----------------------| 
D||-------------------|-----------9--L---------|----------------------| 
A||-------------------|-----------------9------|----------------------| 
E||-------------------|------------------------|--7\------------------| 


  |----6----|    |----6----|                                                 
  Q    Q    Q    Q    Q    Q       E  E  Q    H           W                  
--9----7------------------------|----------------------|-------------------| 
------------9----7----6----0----|----------------------|-------------------| 
--------------------------------|----------------------|-------------------| 
--------------------------------|--7-------------------|-------------------| 


  Q    E  E  E  E  E  E     E  E  Q    E  E  E  E     Q.      E   E  E  Q      
-------------------------|-------------------------|-------------------------| 
-------------------------|-------------------------|-------------------------| 
-------------------------|-------------------------|-------------------------| 
----------7--7--7-----5--|-----5--2----5--2--5--2--|--7s------2s--7--7-------| 


        |--3--|                                              
   Q    E  E  E  Q    E  E      Q    E   E    E  E   E  E    
----------------------------|------------------------------| 
----------------------------|------------------------------| 
----------------------------|--------------------9---------| 
--/5----4--5--4--0----2--0--|--/7-------/7--/10-----10--9--| 


  Q.      E  E  E  E  E     Q.      E   E  E  Q      
---------/7--------9-----|-------------------------| 
-------------9--------9--|-------------------------| 
--0-------------7--------|-------------------------| 
-------------------------|--7s------2s--7--7-------| 


        |--3--|                                              
   Q    E  E  E  Q    E  E     Q     E   E    E  E   E  E    
----------------------------|------------------------------| 
----------------------------|------------------------------| 
--/5----4--5--4-------------|--------------------9---------| 
-----------------0----2--0--|--7s----2s--7s--10-----10--9--| 


                          verse 1 


  E  E  E  E  E  E  E  E     Q.      E   E  E  E  E     Q.     E  E  E  E  E    
--------------------------|--------------------------|------------------------| 
--------------------------|--------------------------|------------------------| 
--------------------------|--------------------------|------------------------| 
--5--0--0--2--5--4--5--0--|--7s------2s--7--7-----7--|--5------0-----0-----0--| 


  Q     Q     E  E  E  E     Q.     E  E  E  E  E     Q     Q     E  E  E  E    
--------------------------|------------------------|--------------------------| 
--------------------------|------------------------|--------------------------| 
--------------------------|---------7-----7--------|--------------------------| 
--7\---------/7--7-----0--|--5------------------5--|--7\---------/7--7-----7--| 


  Q.     E  E  E  E  E     Q     Q     E  E  E  E     Q.     E  E  E  E  E    
------------------------|--------------------------|------------------------| 
------------------------|--------------------------|------------------------| 
------------------------|--------------------------|------------------------| 
--5------0-----0-----0--|--7\---------/7--7-----0--|--5------0-----0-----0--| 


  Q     Q     E  E  E  E     Q.     E  E  E  E  E     Q     Q     E  E  E  E    
--------------------------|------------------------|--------------------------| 
--------------------------|------------------------|--------------------------| 
--------------------------|------------------------|--------------------------| 
--7\---------/7--7-----7--|--5------0-----0-----0--|--7\---------/7--7-----0--| 


  Q.     E  E  E  E  E     Q     Q     E  E  E  E     Q.     E  E  E  E  E    
------------------------|--------------------------|------------------------| 
------------------------|--------------------------|------------------------| 
---------7-----7--------|--------------------------|------------------------| 
--5------------------5--|--7\---------/5--5-----5--|--5------0-----0-----0--| 


                                                 Chorus 

  Q     Q     E  E  E  E     Q.     E  Q    Q       Q.     E  H          
--------------------------|----------------------|---------------------| 
--------------------------|----------------------|---------------------| 
--------------------------|----------------------|---------------------| 
--7\---------/7--7-----0--|--5------0--5----4----|--0------0--0--------| 


  Q.     E  S S E  Q       Q.     E  Q.     E     Q    E  E  E  E  Q      
------------------------|----------------------|------------------------| 
------------9-----------|----------------------|------------------------| 
--------------9---------|--5------5--5---------|------------------------| 
--7-------------7--0----|-------------------0--|--5----5--5--5--5--5----| 


  H        H           Q.     E  E  E  E  E     Q.     E  H          
--------------------|------------------------|---------------------| 
--------------------|------------------------|---------------------| 
-----------7--------|---------------------0--|--5------5--5--------| 
--0-----------------|--7------0--2--0--2-----|---------------------| 


                                                        |--3--|               
  H        E  Q.        Q.      E   E  E   Q       Q    E  E  E  Q    E  E    
---------------------|--------------------------|---------------------------| 
---------------------|--------------------------|---------------------------| 
---------------------|--------------------------|---------------------------| 
--5--------5--3------|--7s------2s--7--7\-------|--5----4--5--4--0----2--0--| 


  E   E   E   E    E  E   E  E     Q.     E  E  E  E  E    
--------------------------------|---------7--6-----------| 
--------------------------------|---------------7-----7--| 
----------------------9---------|------------------7-----| 
--7\-----/7--/7--/10-----10--9--|--5---------------------| 


                                  |--3--|               
  Q.      E   E  E   Q       Q    E  E  E  Q    E  E    
--------------------------|---------------------------| 
--------------------------|---------------------------| 
--------------------------|---------------------------| 
--7s------2s--7--7\-------|--5----4--5--4--0----2--0--| 


  E   E   E   E    E  E   E  E     E  Q    E  E  E  E  E    
--------------------------------|-------------------------| 
--------------------------------|-------------------------| 
----------------------9---------|-------------------------| 
--7\-----/7--/7--/10-----10--9--|--5--0----2-----4--5--0--| 


verse 2 

  Q.      E   E  E  E  E     Q.     E  E  E  E  E     Q     Q     E  E  E  E    
--------------------------|------------------------|--------------------------| 
--------------------------|------------------------|--------------------------| 
--------------------------|------------------------|--------------------------| 
--7s------2s--7--7-----7--|--5------0-----0-----0--|--7\---------/7--7-----0--| 


  Q.     E  E  E  E  E     Q     Q     E  E  E  E     Q.     E  E  E  E  E    
------------------------|--------------------------|------------------------| 
------------------------|--------------------------|------------------------| 
---------7-----7--------|--------------------------|------------------------| 
--5------------------5--|--7\---------/7--7-----7--|--5------0-----0-----0--| 


  Q     Q     E  E  E  E     Q.     E  E  E  E  E     Q     Q     E  E  E  E    
--------------------------|------------------------|--------------------------| 
--------------------------|------------------------|--------------------------| 
--------------------------|------------------------|--------------------------| 
--7\---------/7--7-----0--|--5------0-----0-----0--|--7\---------/7--7-----7--| 


  Q.     E  E  E  E  E     Q     Q     E  E  E  E     Q.     E  E  E  E  E    
------------------------|--------------------------|------------------------| 
------------------------|--------------------------|------------------------| 
------------------------|--------------------------|---------7-----7--------| 
--5------0-----0-----0--|--7\---------/7--7-----0--|--5------------------5--| 


  Q     Q     E  E  E  E     Q.     E  E  E  E  E     Q     Q     E  E  E  E    
--------------------------|------------------------|--------------------------| 
--------------------------|------------------------|--------------------------| 
--------------------------|------------------------|--------------------------| 
--7\---------/5--5-----5--|--5------0-----0-----0--|--7\---------/7--7-----0--| 


                       Chorus 

  Q.     E  Q    Q       Q.     E  H           Q.     E  S S E  Q      
----------------------|---------------------|------------------------| 
----------------------|---------------------|------------9-----------| 
----------------------|---------------------|--------------9---------| 
--5------0--5----4----|--0------0--0--------|--7-------------7--0----| 


  Q.     E  Q.     E     Q    E  E  E  E  Q       H        H          
----------------------|------------------------|--------------------| 
----------------------|------------------------|--------------------| 
--5------5--5---------|------------------------|-----------7--------| 
-------------------0--|--5----5--5--5--5--5----|--0-----------------| 


  Q.     E  E  E  E  E     Q.     E  H           H        E  Q.       
------------------------|---------------------|---------------------| 
------------------------|---------------------|---------------------| 
---------------------0--|--5------5--5--------|---------------------| 
--7------0--2--0--2-----|---------------------|--5--------5--3------| 


                                  |--3--|               
  Q.      E   E  E   Q       Q    E  E  E  Q    E  E    
--------------------------|---------------------------| 
--------------------------|---------------------------| 
--------------------------|---------------------------| 
--7s------2s--7--7\-------|--5----4--5--4--0----2--0--| 


  E   E   E   E    E  E   E  E     Q.     E   E  Q.       
--------------------------------|-----------------------| 
--------------------------------|----------------7------| 
----------------------9---------|---------5s--7---------| 
--7\-----/7--/7--/10-----10--9--|--5--------------------| 


                                  |--3--|               
  Q.      E   E  E   Q       Q    E  E  E  Q    E  E    
--------------------------|---------------------------| 
--------------------------|---------------------------| 
--------------------------|---------------------------| 
--7s------2s--7--7\-------|--5----4--5--4--0----2--0--| 



                                                      Guitar solo 

  Q     E   E    E  E   E  E     Q.     E  Q    Q       E  E  E  E  Q    E  E    
------------------------------|----------------------|-------------------------| 
------------------------------|----------------------|-------------------------| 
--------------------9---------|----------------------|-------------------------| 
--7\-------/7--/10-----10--9--|--5------0--5----0----|--5--7--7--5--7----5--0--| 


  E  Q    E  Q    E  E     Q    Q    Q    Q       E  E  E  E  E  E  E  E    
------------------------|----------------------|--------------------------| 
------------------------|----------------------|--------5-----------7-----| 
-----5------------------|-------7---------7----|-----5-----5-----7--------| 
--7-------5--5----5--7--|--0---------0---------|--3-----------5--------0--| 


  E  E  E  E  Q    E  E     E  Q    E  Q    E  E     Q    E  E  Q    Q      
-------------------------|------------------------|-----------------------| 
-------------------------|------------------------|-----------------------| 
-------------------------|-----5------------------|-------5--7--7---------| 
--5--7--7--5--7----5--0--|--7-------5--5----5--7--|--0---------------0----| 


  E  E  E  E  E  E  E  E     E  E  E  E  Q    E  E     E  Q    E  Q    E  E    
--------------------------|-------------------------|------------------------| 
--------5-----------7-----|-------------------------|------------------------| 
-----5-----5-----7--------|-------------------------|-----5------------------| 
--3-----------5--------0--|--5--7--7--5--7----5--0--|--7-------5--5----5--7--| 


  Q    E  E  Q    E  E     E  E  E  E  E  E  E  E     E  E  E  E  Q    E  E    
------------------------|--------------------------|-------------------------| 
------------------------|--------5-----------7-----|-------------------------| 
-------7-----7----7-----|-----5-----5-----7--------|-------------------------| 
--0-------0----------0--|--3-----------5--------0--|--5--7--7--5--7----5--0--| 


  E  Q    E  Q    E  E     Q    E  E  H           E  E  E  E  E  E  E  E    
------------------------|----------------------|--------------------------| 
------------------------|----------------------|--------5-----------7-----| 
-----5------------------|-------7-----7--------|-----5-----5-----7--------| 
--7-------5--5----5--7--|--0-------0-----------|--3-----------5--------0--| 


  W                   W                   W                  
-------------------|-------------------|-------------------| 
-------------------|-------------------|-------------------| 
--9----------------|--7----------------|--5----------------| 
--7----------------|--0----------------|-------------------| 


  Q    E  E  E  E  E  E     W                   W                  
-------------------------|-------------------|-------------------| 
-------------------------|-------------------|-------------------| 
-------------------------|-------------------|-------------------| 
--5----5--5--5--5--5--5--|--0----------------|--7----------------| 


  W                   H        E  E  Q       Q.      E   E  E   Q      
-------------------|----------------------|--------------------------| 
-------------------|----------------------|--------------------------| 
--5----------------|----------------------|--------------------------| 
-------------------|--5--------5--3--L----|--7s------2s--7--7\-------| 


       |--3--|                                              
  Q    E  E  E  Q    E  E     Q     E   E    E  E   E  E    
---------------------------|------------------------------| 
---------------------------|------------------------------| 
---------------------------|--------------------9---------| 
--5----4--5--4--0----2--0--|--7s----2s--7--/10-----10--9--| 


  Q.     E  E  E  E  E     Q.      E   E  E  Q       Q    Q    Q    E  E    
------------------9--7--|-------------------------|-----------------------| 
---------7--6-----------|-------------------------|-----------------------| 
--0------------7--------|-------------------------|-----------------------| 
------------------------|--7s------2s--7--7-------|--5----4----0----2--0--| 


  Q     E   E   E  E   E  E     Q.     E  E  E  E  E    
-----------------------------|------------6--7--8--9--| 
-----------------------------|---------7--------------| 
-------------------9---------|------------------------| 
--7s----2s--7--10-----10--9--|--5---------------------| 


verse 3 

  Q.      E   E  E  E  E     Q.     E  E  E  E  E     Q     Q     E  E  E  E    
--------------------------|------------------------|--------------------------| 
--------------------------|------------------------|--------------------------| 
--------------------------|------------------------|--------------------------| 
--7s------2s--7--7-----7--|--5------0-----0-----0--|--7\---------/7--7-----0--| 


  Q.     E  E  E  E  E     Q     Q     E  E  E  E     Q.     E  E  E  E  E    
------------------------|--------------------------|------------------------| 
------------------------|--------------------------|------------------------| 
---------7-----7--------|--------------------------|------------------------| 
--5------------------5--|--7\---------/7--7-----7--|--5------0-----0-----0--| 


  Q     Q     E  E  E  E     Q.     E  E  E  E  E     Q     Q     E  E  E  E    
--------------------------|------------------------|--------------------------| 
--------------------------|------------------------|--------------------------| 
--------------------------|------------------------|--------------------------| 
--7\---------/7--7-----0--|--5------0-----0-----0--|--7\---------/7--7-----7--| 


  Q.     E  E  E  E  E     Q     Q     E  E  E  E     Q.     E  E  E  E  E    
------------------------|--------------------------|------------------------| 
------------------------|--------------------------|------------------------| 
------------------------|--------------------------|---------7-----7--------| 
--5------0-----0-----0--|--7\---------/7--7-----0--|--5------------------5--| 


  Q     Q     E  E  E  E     Q.     E  E  E  E  E     Q     Q     E  E  E  E    
--------------------------|------------------------|--------------------------| 
--------------------------|------------------------|--------------------------| 
--------------------------|------------------------|--------------------------| 
--7\---------/5--5-----5--|--5------0-----0-----0--|--7\---------/7--7-----0--| 


                        
                       Outro Chorus 

  Q.     E  Q    Q       Q.     E  H           Q.     E  S S E  Q      
----------------------|---------------------|------------------------| 
----------------------|---------------------|------------9-----------| 
----------------------|---------------------|--------------9---------| 
--5------0--5----4----|--0------0--0--------|--7-------------7--0----| 


  Q.     E  Q.     E     Q    E  E  E  E  E  E     Q.     E  Q.     E    
----------------------|-------------------------|----------------------| 
----------------------|-------------------------|----------------------| 
--5------5--5---------|-------------------4--2--|---------7--L------5--| 
-------------------0--|--5----5--5--5--5--------|--0-------------------| 


  Q.     E  E  E  E  E     Q.     E  Q.     E     H        E  E  Q      
------------------------|----------------------|----------------------| 
------------------------|----------------------|----------------------| 
------------------------|--5------5--5---------|----------------------| 
--7------5--7--0--2--5--|-------------------0--|--5--------5--3-------| 


  Q.     E  H           W                   W                  
---------------------|-------------------|-------------------| 
---------------------|-------------------|--7----------------| 
---------------------|-------------------|--5----------------| 
--0------0--0--------|--7----------------|-------------------| 


  Q    E  E  E  E  E  E     W                   W                  
-------------------------|-------------------|-------------------| 
-------------------------|-------------------|-------------------| 
-------------------4--2--|--7----------------|-------------------| 
--5----5--5--5--5--------|-------------------|--7----------------| 


  W                   E  E  E  E  E  E  E  E     Q    E  E  Q    E  E    
-------------------|--------------------------|------------------------| 
-------------------|--------------------------|------------------------| 
--5----------------|--------------------4--2--|------------------------| 
-------------------|--5--5--5--5--5--5--------|--0-------0--0-------7--| 


  Q    E  E  Q    Q       Q    E  E  Q    E  E     Q    E  E  Q    Q      
-----------------------|------------------------|-----------------------| 
-----------------------|------------------------|-----------------------| 
-----------------------|--5-------5--5----------|-----------------------| 
--7-------7--7---------|---------------------5--|--5-------5--5---------| 


  Q    E  E  Q    E  E     Q    E  E  Q    Q       Q    E  E  Q    E  E    
------------------------|-----------------------|------------------------| 
------------------------|-----------------------|------------------------| 
------------------------|-----------------------|--5-------5--5----------| 
--0-------0--0-------7--|--7-------7--7---------|---------------------5--| 


  Q    E  E  Q    Q       Q    Q    Q    Q       Q    E  E  Q.     E    
-----------------------|------------9---------|-----------------------| 
-----------------------|-------9---------9----|----------9--9---------| 
-----------------------|--7-------------------|-------9------------9--| 
--5-------5--5---------|----------------------|--7--------------------| 


  Q    E  E  Q    Q       Q    E  E  Q.     E     Q    Q    Q    E  E    
-------------7---------|-----------------------|------------9----------| 
-------7----------7----|----------7--7---------|-------9---------9-----| 
--5-------5------------|-------7---------------|--7-----------------7--| 
-----------------------|--5--------------------|-----------------------| 


  Q    E  E  Q.     E     Q    Q    Q    Q       Q    E  E  Q    E  E    
-----------------------|------------7---------|------------------------| 
----------9--9---------|-------7---------7----|----------7--7----7--9--| 
-------9---------------|--5-------------------|-------7----------------| 
--7--------------------|----------------------|--5---------------------| 


  Q    E  E  Q    E  E     Q    E  E  Q    E  E     Q    Q    Q    Q      
------------------------|------------------------|----------------------| 
------------------------|------------------------|----------------------| 
--7---------------------|-------6-----9----6-----|--5-------------------| 
-------7--0--0----5--0--|--7-------7----------7--|-------5----2----3----| 


  Q    E  E  Q    E  E     Q    E  E  Q    Q       Q    E  E  Q    E  E    
------------------------|-----------------------|------------------------| 
------------------------|-----------------------|------------------------| 
-------4-----7----4-----|-------------7---------|-------6-----9----6-----| 
--5-------5----------5--|--0----7--0-------5----|--7-------7----------7--| 


  Q    E  E  Q    Q       Q    E  E  Q    E  E     
-----------------------|------------------------|| 
-----------------------|------------------------|| 
--5-------5------------|-------4-----7----4-----|| 
-------5-----2----3----|--5-------5----------5--|| 




Duration Legend 
--------------- 
W - whole 
H - half 
Q - quarter 
E - 8th 
S - 16th 
. - note dotted 
|-n-|  - n-tuplets 


Tablature Legend 
---------------- 
L - tied note 
x - dead note 
g - grace note 
(n) - ghost note 
> - accentuded note 
h - hammer on 
p - pull off 
b - bend 
s - legato slide 
/ -  slide into from below or out of upwards 
\ -  slide into from above or out of downwards 
~ - vibrato 
		  

Full key step upFull key step up
Half key step upHalf key step up
Half key step downHalf key step down
Full key step downFull key step down
hide glossary

See also:

bass Creedence Clearwater Revival - Hindway bass Creedence Clearwater Revival - Have You Eever Seen The Rain bass Johnny Cash - Ring Of Fire bass Doobie Brothers - Listen To The Music bass Johnny Cash - Folsom Prison Blues bass Beach Boys - Surfin Usa
e-chords

Other versions:

bass Lynyrd Skynyrd - On the hunt
auto scroll beats size up size down change color hide chords drawings
tab show chords e-chords YouTube Clip e-chords hide all tabs e-chords go to top tab

share