Luciano Pavarotti

Adeste Fideles

Luciano Pavarotti

tabs

by  CURSOVILLALOBOS

save to print version add songbook text version e-mail correct tuner
chordsukulelecavacokeyboardtabbassdrumsharmonicaflute Guitar Pro
close

there isn't a video lesson for this song

chords

Adeste Fideles

	  		E|--------------------0-----0--1--0-----| 
B|--1--1-----1--3--------3-----------3--| 
G|--------0--------0--------------------| 
D|--------------------------------------| 
A|--------------------------------------| 
E|--------------------------------------| 


E|--------------------------------------| 
B|--1--1--0-----0--1--3--5--0-----------| 
G|-----------2-----------------2--0--0--| 
D|--------------------------------------| 
A|--------------------------------------| 
E|--------------------------------------| 


E|--3--1--0--1--0-----0--------------------| 
B|-----------------3-----1--3--0-----------| 
G|--------------------------------2--0--0--| 
D|-----------------------------------------| 
A|-----------------------------------------| 
E|-----------------------------------------| 


E|------------------------0--0-----0--1--0-----| 
B|--1--1--0--1--3--1------------3-----------3--| 
G|--------------------0------------------------| 
D|---------------------------------------------| 
A|---------------------------------------------| 
E|---------------------------------------------| 


E|--0--1--0--------------1--0-----------| 
B|-----------3--1--0--1--------3--1--1--| 
G|--------------------------------------| 
D|--------------------------------------| 
A|--------------------------------------| 
E|--------------------------------------| 

Repetir 3 vezes inteira 
		  

See also:

tabs Niccolo Paganini - 5 Capricho tabs Luciano Pavarotti - Adeste Fideles
e-chords

Other versions:

tabs John Francis Wade - Adeste Fideles tabs Luciano Pavarotti - Adeste Fideles
auto scroll beats size up size down change color hide chords drawings
tab show chords e-chords YouTube Clip e-chords hide all tabs e-chords go to top tab

share