John Francis Wade

home > John Francis Wade

Adeste Fideles Tab

John Francis Wade

Difficulty: EasyEasy

by Acelot

tuner correct add songbook print version text version save to e-mail
chordsukulelecavacokeyboardtabbassdrumsharmonicsflute Guitar Pro
chords

Adeste Fideles

	  
 Parte A 



 e|---------------------0---0-1-0---------------------0--------------| 
 B|---1-1-----1-3-------1-3---------3-1-1---0---0-------0------------| 
 G|---------0-------0---2---------0-----------2-0---7-------2-0-0----| 
 D|-------2-------0-----------------------0-----0-5-------0----------| 
 A|-----3-------2-------0--------------------------------------------| 
 D|-----------------------------5-------3---4---5---6---0-------5----| 




 e|--3-----1p0-1--------0---------------------------0-0---0-1-0------| 
 B|--3---3-----0---5--3---1-3-0-----1-1-0-1-3-1-------1-3-----1------| 
 G|--0-0---------0------------0-2-0-------2-------0---2-------0-0----| 
 D|---------------------------0-----------0-----2--------------------| 
 A|--3---------2--------------------------------------0---2---3------| 
 D|----------------2--3-------5---3---2---3---2----------------------| 




 e|----0-1-0-----------1-0-------------------------------------------| 
 B|--3---3---3-1-0-1-3-------3---1-1---------------------------------| 
 G|------2-----------------0---0-------------------------------------| 
 D|------0---2---3---------------------------------------------------| 
 A|--2-----------------------------3---------------------------------| 
 D|----------------------5-------------------------------------------| 




 Parte B 



 e|-8-8------8-10------12-10-12-13-12---10-8---7-------8-10-12-7-----| 
 B|--------8--------8----------------------------10-12---------7---10| 
 G|------9--------7-------------------0------0-----------------7-7---| 
 D|---10-------9-----------------------------------------------0-----| 
 A|--------------------12----------10------8---9----10---11----------| 
 D|------------------------------------------------------------------| 




 e|------3-----1p0-1--------0---------------------------0-0---0-1-0--| 
 B|-8-8--3---3---------5--3---1-3-0-----1-1-0-1-3-1-------1-3-----1--| 
 G|---7--0-0---------0------------0-2-0-------2-------0---2-------0-0| 
 D|---5---------------------------0-----------0-----2----------------| 
 A|------3---------2--------------------------------------0---2---3--| 
 D|--------------------2--3-------5---3---2---3---2------------------| 




 e|----0-1-0-----------1-0-------------------------------------------| 
 B|--3---3---3-1-0-1-3-------3---1-1---------------------------------| 
 G|------2-----------------0---0-------------------------------------| 
 D|------0---2---3---------------------------------------------------| 
 A|--2-----------------------------3---------------------------------| 
 D|----------------------5-------------------------------------------| 
	  

adeste-fideles-by-john-francis-wade Play

there is a video lesson for this song

view more
Search
auto scroll beats size up size down change color hide chords drawings
tab show chords e-chords YouTube Clip e-chords hide all tabs e-chords go to top tab