Niccolo Paganini

5 Capricho Tab

Niccolo Paganini

Difficulty: AdvancedAdvanced

by FGMretro

tuner correct add songbook print version text version save to e-mail
chordsukulelecavacokeyboardtabbassdrumsharmonicsflute Guitar Pro
close

there isn't a video lesson for this song

request
chords

5 Capricho

  		Paganini - caprice 5 


|-------------------7--12---11-8-7-----------------------------------------| 
|-----------------8----------------10-8-7----------------------------------| 
|-----------0---9-------------------------9-8------------------------------| 
|---------2---9-------------------------------10-9-7-----------------------| 
|-------2--------------------------------------------10-9-7-6--------------| 
|-0---3-------------------------------------------------------8-7-5-3-2----| 


|--------------------------12--15----14-12-11-8-7--------------------------- 
|-----------------------12------------------------10-8-7-------------------- 
|-----------0--------12----------------------------------9-8---------------- 
|---------2-------14-----------------------------------------10-9-7--------- 
|-------2------14---------------------------------------------------10-9---- 
|-0---3--------------------------------------------------------------------- 


----------------|--------------------------12-15-19----17-15-14-12-11-8-7--- 
----------------|-----------------------12---------------------------------- 
----------------|-----------0--------12------------------------------------- 
----------------|---------2-------14---------------------------------------- 
-7-6------------|-------2------14------------------------------------------- 
-----8-7-5-3-2--|-0---3----------------------------------------------------- 


--------------------------------------|-----------------------------15-19-24 
-10-8-7-------------------------------|-----------------------12-17--------- 
--------9-8---------------------------|-----------0--------12--------------- 
------------10-9-7--------------------|---------2-------14------------------ 
-------------------10-9-7-6-----------|-------2------14--------------------- 
----------------------------8-7-5-3-2-|-0---3------------------------------- 


-23-20-19------------------------------------------------------------------| 
----------22-20-19---------------------------------------------------------| 
-------------------21-20-17-16---------------------------------------------| 
-------------------------------19-17-16-14-13------------------------------| 
----------------------------------------------15-14-12-10-9-7-6------------| 
----------------------------------------------------------------8-7-5-3-2--| 


|---------------------------------------------------|----------------------- 
|-------------------------------------------1-2-3-4-|-5-4-3-2--------------- 
|-----------------------------------1-2-3-4---------|---------5-4-3-2------- 
|---------------------------2-3-4-5-----------------|-----------------6-5-4- 
|-------------------3-4-5-6-------------------------|----------------------- 
|-0---1-2-3-4-5-6-7---------------------------------|----------------------- 


----------------------------------------| 
----------------------------------5-----| 
----------------------------------0-----| 
3---------------------------------------| 
---7-6-5-4------------------------2-----| 
-----------8-7-6-5-4-3-2-1-0------------| 


||---------------------------------|---------------------------------------| 
||---------------------------------|---------------------------------------| 
||-------------------9-7-5---------|-------------------9-7-5---------------| 
||---5-9-5---7-9-7-5-------9-7-5---|---5-9-5---7-9-7-5-------9-7-5---------| 
||-7-------9---------------------9-|-7-------9----------------------9------| 
||---------------------------------|---------------------------------------| 


|----------------------------------|------------------------------------14-- 
|----------------------------------|---------------------------------16----- 
|------------------------------4---|------------------------------16-------- 
|---6-9-6---7-10-7---4-7-4---5---5-|-----10-7------14----------16----------- 
|-7-------7--------5-------5-------|-6-9------10-7----13-14-18-------------- 
|----------------------------------|---------------------------------------- 


-17-19-|-------------------------------------------------|------------------ 
-------|----------------------------17-15-13-------------|------------------ 
-------|----12-16-12----14-16-14-12----------16-14-12----|----12-16-12------ 
-------|-14----------16-------------------------------16-|-14----------16--- 
-------|-------------------------------------------------|------------------ 
-------|-------------------------------------------------|------------------ 


----------------------------------|-------------12----------------14-12----- 
-------------17-15-13-------------|-------12-------15-13-12-------------15-- 
-14-16-14-12----------16-14-12----|----13----13-------------13-14----------- 
-------------------------------16-|-14-------------------------------------- 
----------------------------------|----------------------------------------- 
----------------------------------|----------------------------------------- 


----------|---------------------------------------------|------------------- 
-13-12----|---------------------------------------------|------------------- 
-------14-|-12-11------------------------12--------11---|-----9-------7----- 
----------|-------14-12-11-12-14-10-9-12----9-7-10----7-|-5-9---9-4-7---7-2- 
----------|---------------------------------------------|------------------- 
----------|---------------------------------------------|------------------- 


---------------|---------------3--------5--------7--|--------8-------------- 
---------------|-------------3--------7--------8----|------8-------11------- 
---5-------5---|-----5-----4--------5--------7------|----9------------12---- 
-5---2-1-5---1-|-0-4---4-5--------7--------9--------|-10--------11-------14- 
---------------|------------------------------------|----------------------- 
---------------|------------------------------------|----------------------- 


-----10-------------------|----15-14-12----------------14-12---------------| 
--------12-------13-10----|-------------15-13-12----13-------15-14-12-11---| 
-----------12----------11-|-12-------------------12----------------------11| 
-12-----------12----------|------------------------------------------------| 
--------------------------|------------------------------------------------| 
--------------------------|------------------------------------------------| 


|----12-10-8--------------10-8-7----------|---8-7---------------------9-12-- 
|-12---------12-10-9---10--------10-8-7---|-8-----10-8-7---------8-11------- 
|--------------------9------------------7-|--------------9-7-6-9------------ 
|-----------------------------------------|--------------------------------- 
|-----------------------------------------|--------------------------------- 
|-----------------------------------------|--------------------------------- 


-15-9-|-15-10-------------------14-10------------------|----15-14-13-12-11-- 
------|-------12----------------------10---------------|-------------------- 
------|----------12----------------------11------------|-------------------- 
------|-------------12-9--------------------12---------|-------------------- 
------|------------------10--------------------12-9----|-10----------------- 
------|---------------------10----------------------10-|-------------------- 






-10-9-------------------------|--------------------------------------------| 
------13-12-11-10-------------|--------------------------------------------| 
------------------13-12-11-10-|----------------------------9-7---7---------| 
------------------------------|-14-13-12-11-10-9-8-7-----9---------10-7----| 
------------------------------|-----------------------10-------9-----------| 
------------------------------|--------------------------------------------| 


|-----------------------------------------|| 
|-----------------------------------------|| 
|--------------7-------------------7------|| 
|----9-----------10-7----9-----------10-7-|| 
|-10------10-9--------10------10-9--------|| 
|------10------------------10-------------|| 

play ending 1  
repeat from first || and play rest 

|----------------------------------| 
|----------------------------------| 
|-----------5----------------------| 
|-5-9-7-5-4---7-4------------7-----| 
|-----------------7-10-9-7-6---9-6-| 
|----------------------------------| 



|-----------------------------------|---8-------7--------------------------| 
|-----------------------------------|-----8-------9------10--------8-------| 
|----7--------7-------5-------4-----|-------9-7-----7-------9--------7-----| 
|------9--------9-------5-------3---|-----------------10------10-9-----9---| 
|-10-----10-8-----8-7-----7-5-----5-|-7------------------------------------| 
|-----------------------------------|--------------------------------------| 


|------------------------------------------|----13----------12-------------- 
|----10--------8---------------------------|-------13----------14-------15-- 
|-------9--------9------10----------9------|----------14-12-------12-------- 
|-10------10-8-----8-------10---------9----|-------------------------15----- 
|--------------------12-------12-10-----10-|-12----------------------------- 
|------------------------------------------|-------------------------------- 


-------------------|-------------------------------------------------------| 
----------13-------|----15----------13-------------------------------------| 
-14----------12----|-------14----------14-------15----------14-------------| 
----15-14-------14-|-15-------15-13-------13-------15----------14----------| 
-------------------|-------------------------17-------17-15-------15-------| 
-------------------|-------------------------------------------------------| 


|----18----------17----------15----------13-------|----15-14-13-12-11-10-9-- 
|-------18----------19----------15----------13----|------------------------- 
|----------19-17-------17-15-------15-14-------14-|-12---------------------- 
|-------------------------------------------------|------------------------- 
|-17----------------------------------------------|------------------------- 
|-------------------------------------------------|------------------------- 


-------------------------|----------------------------------------|----11--- 
-13-12-11-10-------------|----------------------------------------|--------- 
-------------13-12-11-10-|---------------------------8-7---7------|--------- 
-------------------------|-14-13-12-11-10-9-8-7----8---------10-7-|--------- 
-------------------------|----------------------10-------9--------|-10------ 
-------------------------|----------------------------------------|--------- 



-10-9-8-7-6-5-----------------|----------------------------------|---------- 
--------------9-8-7-6---------|----------------------------------|---4------ 
----------------------9-8-7-6-|----------------------5-3---3-----|-----3---- 
------------------------------|-10-9-8-7-6-5-4-3---5---------6-3-|-------5-- 
------------------------------|------------------6-------5-------|-6-------7 
------------------------------|----------------------------------|---------- 


-------------------------------|-----------------------------7----13-|-11-8- 
-2-------2-------6-------4-----|----8--------6-----------8-----------|------ 
---3-------3-------5-------5---|------7--------7-----7-----7---12----|------ 
-----5-------5-------6-------7-|--------8--------6-----9-------------|------ 
-------7-------8-------9-------|-10-------11-------8-----------------|------ 
-------------------------------|-------------------------------------|------ 


-----------------------------------|----------------10----11-6-------------| 
-8----------------------------9----|----------10-11----11------8-----------| 
---8------8--------------9-10---10-|-8-7-------------------------8-7-8-6---| 
-----9-10---10-8-------------------|-----10-8----------------------------8-| 
-----------------11-10-8-----------|---------------------------------------| 
-----------------------------------|---------------------------------------| 


|---------------------------------|----------------------------------------| 
|-------------------9-8-6---------|-------------7-------7-------6----------| 
|---5-8-5---6-8-6-5-------8-6-5---|---5-8-5---8---8---8---8---6---6--------| 
|-6-------8---------------------8-|-6-------6-------7-------8--------------| 
|---------------------------------|----------------------------------------| 
|---------------------------------|----------------------------------------| 


|----------------------------------------|----------------------------------| 
|----------------------11-10-8-----------|-----6-----6-9-6---6-9-6----------| 
|---7-10-7----8-10-8-7---------10-8-7----|---7---7--------------------8-12-8| 
|-8--------10-------------------------10-|-8-------8-------9-------10-------| 
|----------------------------------------|----------------------------------| 
|----------------------------------------|----------------------------------| 


|---------------8--------8---------9-------|-------------------------------- 
|----11-8---------9--------10--------11----|----12-9------------------------ 
|-------------------10-8------8---------10-|---------10-------------------11 
|-11------11-10-----------------11---------|-11---------11-9-----------11--- 
|------------------------------------------|-----------------11-8-9-13------ 
|------------------------------------------|-------------------------------- 


-------14-18-|-------------------------------11-14-|------------------------ 
-11-14-------|---9-6----------------------11-------|------------------------ 
-------------|-------7---------------8-11----------|---8-11-8----9-11-9----- 
-------------|-8-------8-6---------8---------------|-9--------11--------13-- 
-------------|-------------8-5-6-9-----------------|------------------------ 
-------------|-------------------------------------|------------------------ 


----------------------|----------------------------------------------------| 
----12----------12----|-------14----------14----------16----------17-------| 
-11----11----12----12-|----13----13----15----15----15----15----16----16----| 
----------14----------|-15----------16----------17----------18-------------| 
----------------------|----------------------------------------------------| 
----------------------|----------------------------------------------------| 






|-------14----------14----------------------14----|-------------------12---- 
|----14----14----16----16----15-18-15----14----14-|----13-16-13----12----12- 
|-15----------16----------16----------15----------|-14----------13---------- 
|-------------------------------------------------|------------------------- 
|-------------------------------------------------|------------------------- 
|-------------------------------------------------|------------------------- 


-------------------10----|---------------8----------------7---|------------- 
----11-14-11----10----10-|----9-12-9---8---8---8-11-8---7---7-|---6-11-6---- 
-12----------11----------|-10--------9-------9--------8-------|-7--------6-- 
-------------------------|------------------------------------|------------- 
-------------------------|------------------------------------|------------- 
-------------------------|------------------------------------|------------- 


---5-----------------------|--------------------19-23----------------------| 
-5---5------10--------11---|--------------16-19------------10--------11----| 
----------9----9----9----9-|-----------16----------------9----9----9----9--| 
-------10--------10--------|-------116----------------10--------10---------| 
---------------------------|-14-18-----------------------------------------| 
---------------------------|-----------------------------------------------| 


|-------7-------14-19----15-19-15----17-19-17-|----24-22-20-19-------------- 
|-----7------16-------17----------19----------|-20-------------22-20-19-17-- 
|---8-----16----------------------------------|----------------------------- 
|-9-------------------------------------------|----------------------------- 
|---------------------------------------------|----------------------------- 
|---------------------------------------------|----------------------------- 


-15-19-15----17-19-17-|----24-22-20-19-------------22-20-19----------------| 
----------19----------|-20-------------22-21----22----------22-20-19-------| 
----------------------|----------------------21----------------------19----| 
----------------------|----------------------------------------------------| 
----------------------|----------------------------------------------------| 
----------------------|----------------------------------------------------| 


|----20-19-17----------------19-17-15-------------|----17-15-14------------- 
|-20----------20-19-17----19----------19-17-16----|-17----------17-15-13---- 
|----------------------17----------------------16-|----------------------16- 
|-------------------------------------------------|------------------------- 
|-------------------------------------------------|------------------------- 
|-------------------------------------------------|------------------------- 


----15-12----------------|-15-12-------------------14-11-------------------| 
----------14-------------|-------12----------------------------------------| 
-15----------15-12-------|----------12-------------------14-11-------------| 
-------------------14----|-------------14----------------------13----------| 
----------------------13-|----------------14----------------------12-------| 
-------------------------|-------------------15-12-------------------14-11-| 


|----12-11-10-9-8-7-6-------------------|----------------------------------| 
|---------------------10-9-8-7----------|----------------------------------| 
|------------------------------10-9-8-7-|-----------------------5-4---4----| 
|---------------------------------------|-11-10-9-8-7-6-5-4---5---------7-4| 
|---------------------------------------|-------------------7-------6------| 
|-12------------------------------------|----------------------------------| 






|-------------------------------------------------|------------------------- 
|-------------------------------------------------|------------------------- 
|----------------4-----------------------4--------|----------------4-------- 
|----5--4--7--5--------4-----5--4--7--5--------4--|----5--4--7--5--------4-- 
|-7-----------------6-----7-----------------6-----|-7-----------------6----- 
|-------------------------------------------------|------------------------- 


------------------------| 
------------------------| 
----------------4-------| 
----5--4--7--5--------4-| 
-7-----------------6----| 
------------------------| 


|-------------------7-12----11-9-7-----------------------------------------| 
|-------------0---9----------------10-9-7----------------------------------| 
|-----------1---9-------------------------9-8-6----------------------------| 
|---------2-------------------------------------9-7-6----------------------| 
|-------2---------------------------------------------9-7-6----------------| 
|-0---4-----------------------------------------------------9-7-5-4-2------| 


|-------------------------12-16----14-12-11-9-7----------------------------- 
|--------------0-------12-----------------------10-9-7---------------------- 
|------------1------13---------------------------------9-8-6---------------- 
|----------2-----14------------------------------------------9-7-6---------- 
|--------2---------------------------------------------------------9-7-6---- 
|-0----4-----------------------------------------------------------------9-- 


----------|----------------------------16-19-24--23-21-19------------------- 
----------|--------------0----------17--------------------22-21-19-17-16-14- 
----------|------------1---------16----------------------------------------- 
----------|----------2--------18-------------------------------------------- 
----------|--------2-------19----------------------------------------------- 
-7-5-4-2--|-0----4---------------------------------------------------------- 


----------------------------------------------|----------------------------- 
----------------------------------------------|----------------------------- 
-16-14-13-------------------------------------|----------------------------- 
----------16-14-13-11-9-7---------------------|----------------------------- 
--------------------------11-9-7-6------------|--------------------3-4-5-6-- 
-----------------------------------9-7-5-4-2--|-0----1-2-3-4-5-6-7---------- 


--------------------------|------------------------------------------------- 
-----------------1-2-3-4--|-5-4-3-2----------------------------------------- 
---------1-2-3-4----------|---------5-4-3-2--------------------------------- 
-2-3-4-5------------------|-----------------6-5-4-3------------------------- 
--------------------------|-------------------------7-6-5-4----------------- 
--------------------------|----------------------------------8-7-6-5-4-3-2-- 


----------|| 
-------5--|| 
----------|| 
-------6--|| 
-------2--|| 
-1-0------|| 
	  

Search Paypal
auto scroll beats size up size down change color hide chords drawings
tab show chords e-chords YouTube Clip e-chords hide all tabs e-chords go to top tab

share with facebook