Linkin Park

Wretches And Kings Tab

Linkin Park

Difficulty: nolevelnolevel

by robepoiel

tuner correct add songbook print version text version save to e-mail
chordsukulelecavacokeyboardtabbassdrumsharmonicsflute Guitar Pro
close

there isn't a video lesson for this song

request
chords

Wretches And Kings

  		Intro 
 
|-------------------------------------------------------------------------------------------------| 
|-------------------------------------------------------------------------------------------------| 
|-------------------------------------------------------------------------------------------------| 
|-7--------x--7--------x--7-----------------------7--------x--7--------x--7-----------------------| 
|-7--------x--7--------x--7-----------------------7--------x--7--------x--7-----------------------| 
|-7--------x--7--------x--7-----------------------7--------x--7--------x--7-----------------------| 
 
|Guitar 1 
| 
 
|-------------------------------------------------------------------------------------------------| 
|-------------------------------------------------------------------------------------------------| 
|----------------------------------14----14----------------------------------------14----14-------| 
|----------------------------------x-----x-----------------------------------------x-----x--------| 
|----------------------------------12----12----------------------------------------12----12-------| 
|-------------------------------------------------------------------------------------------------| 
 
|Guitar 2 

 
|-------------------------------------------------------------------------------------------------| 
|-------------------------------------------------------------------------------------------------| 
|-------------------------------------------------------------------------------------------------| 
|-7--------x--7--------x--7-----------------------------------------------------------------------| 
|-7--------x--7--------x--7-----------------------------------------------------------------------| 
|-7--------x--7--------x--7-----------------------------------------------------------------------| 
 
|Guitar 1 
| 
 
|-------------------------------------------------------------------------------------------------| 
|-------------------------------------------------------------------------------------------------| 
|----------------------------------14----14-------------------------------------------------------| 
|----------------------------------x-----x--------------------------------------------------------| 
|----------------------------------12----12-------------------------------------------------------| 
|-------------------------------------------------------------------------------------------------| 
 
|Guitar 2 
| 
 
|-------------------------------------------------------------------------------------------------| 
|----------------------------------------------------11-------11-------11----11-------11-------11-| 
|-------------------------------------------------14----14-14----14-14----14----14-14----14-14----| 
|-------------------------------------------------------------------------------------------------| 
|-------------------------------------------------13----13-13----13-13----13----13-13----13-13----| 
|-------------------------------------------------------------------------------------------------| 
 
|Guitars 3 and 4 (two guitars arranged for one) 

 
|-------------------------------------------------------------------------------------------------| 
|-------------------------------------------------------------------------------------------------| 
|-------------------------------------------------------------------------------------------------| 
|-7--------x--7--------x--7-----------------------7--------x--7--------x--7-----------------------| 
|-7--------x--7--------x--7-----------------------7--------x--7--------x--7-----------------------| 
|-7--------x--7--------x--7-----------------------7--------x--7--------x--7-----------------------| 
 
|Guitar 1 
| 
 
|-------------------------------------------------------------------------------------------------| 
|-------------------------------------------------------------------------------------------------| 
|----------------------------------14----14----------------------------------------14----14-------| 
|----------------------------------x-----x-----------------------------------------x-----x--------| 
|----------------------------------12----12----------------------------------------12----12-------| 
|-------------------------------------------------------------------------------------------------| 
 
|Guitar 2 

 
|-------------------------------------------------------------------------------------------------| 
|-------------------------------------------------------------------------------------------------| 
|-------------------------------------------------------------------------------------------------| 
|-7--------x--7--------x--7-----------------------------------------------------------------------| 
|-7--------x--7--------x--7-----------------------------------------------------------------------| 
|-7--------x--7--------x--7-----------------------------------------------------------------------| 
 
|Guitar 1 
| 
 
|-------------------------------------------------------------------------------------------------| 
|-------------------------------------------------------------------------------------------------| 
|----------------------------------14----14-------------------------------------------------------| 
|----------------------------------x-----x--------------------------------------------------------| 
|----------------------------------12----12-------------------------------------------------------| 
|-------------------------------------------------------------------------------------------------| 
 
|Guitar 2 
| 
 
|-------------------------------------------------------------------------------------------------| 
|----------------------------------------------------11-------11-------11----11-------11-------11-| 
|-------------------------------------------------14----14-14----14-14----14----14-14----14-14----| 
|-------------------------------------------------------------------------------------------------| 
|-------------------------------------------------13----13-13----13-13----13----13-13----13-13----| 
|-------------------------------------------------------------------------------------------------| 
 
|Guitars 3 and 4 (two guitars arranged for one) 

First Verse 
 
|-------------------------------------------------------------------------------------------------| 
|-------------------------------------------------------------------------------------------------| 
|-------------------------------------------------------------------------------------------------| 
|-7--------x--7--------x--7-----------------------7--------x--7--------x--7-----------------------| 
|-7--------x--7--------x--7-----------------------7--------x--7--------x--7-----------------------| 
|-7--------x--7--------x--7-----------------------7--------x--7--------x--7-----------------------| 
 
|Guitar 1 
| 
 
|-------------------------------------------------------------------------------------------------| 
|-------------------------------------------------------------------------------------------------| 
|----------------------------------14----14----------------------------------------14----14-------| 
|----------------------------------x-----x-----------------------------------------x-----x--------| 
|----------------------------------12----12----------------------------------------12----12-------| 
|-------------------------------------------------------------------------------------------------| 
 
|Guitar 2 

 
|-------------------------------------------------------------------------------------------------| 
|-------------------------------------------------------------------------------------------------| 
|-------------------------------------------------------------------------------------------------| 
|-7--------x--7--------x--7-----------------------------------------------------------------------| 
|-7--------x--7--------x--7-----------------------------------------------------------------------| 
|-7--------x--7--------x--7-----------------------------------------------------------------------| 
 
|Guitar 1 
| 
 
|-------------------------------------------------------------------------------------------------| 
|-------------------------------------------------------------------------------------------------| 
|----------------------------------14----14-------------------------------------------------------| 
|----------------------------------x-----x--------------------------------------------------------| 
|----------------------------------12----12-------------------------------------------------------| 
|-------------------------------------------------------------------------------------------------| 
 
|Guitar 2 
| 
 
|-------------------------------------------------------------------------------------------------| 
|----------------------------------------------------11-------11-------11----11-------11-------11-| 
|-------------------------------------------------14----14-14----14-14----14----14-14----14-14----| 
|-------------------------------------------------------------------------------------------------| 
|-------------------------------------------------13----13-13----13-13----13----13-13----13-13----| 
|-------------------------------------------------------------------------------------------------| 
 
|Guitars 3 and 4 (two guitars arranged for one) 

 
|-------------------------------------------------------------------------------------------------| 
|-------------------------------------------------------------------------------------------------| 
|-------------------------------------------------------------------------------------------------| 
|-7--------x--7--------x--7-----------------------7--------x--7--------x--7-----------------------| 
|-7--------x--7--------x--7-----------------------7--------x--7--------x--7-----------------------| 
|-7--------x--7--------x--7-----------------------7--------x--7--------x--7-----------------------| 
 
|Guitar 1 
| 
 
|-------------------------------------------------------------------------------------------------| 
|-------------------------------------------------------------------------------------------------| 
|----------------------------------14----14----------------------------------------14----14-------| 
|----------------------------------x-----x-----------------------------------------x-----x--------| 
|----------------------------------12----12----------------------------------------12----12-------| 
|-------------------------------------------------------------------------------------------------| 
 
|Guitar 2 

 
|-------------------------------------------------------------------------------------------------| 
|-------------------------------------------------------------------------------------------------| 
|-------------------------------------------------------------------------------------------------| 
|-7--------x--7--------x--7-----------------------------------------------------------------------| 
|-7--------x--7--------x--7-----------------------------------------------------------------------| 
|-7--------x--7--------x--7-----------------------------------------------------------------------| 
 
|Guitar 1 
| 
 
|-------------------------------------------------------------------------------------------------| 
|-------------------------------------------------------------------------------------------------| 
|----------------------------------14----14-------------------------------------------------------| 
|----------------------------------x-----x--------------------------------------------------------| 
|----------------------------------12----12-------------------------------------------------------| 
|-------------------------------------------------------------------------------------------------| 
 
|Guitar 2 
| 
 
|-------------------------------------------------------------------------------------------------| 
|----------------------------------------------------11-------11-------11----11-------11-------11-| 
|-------------------------------------------------14----14-14----14-14----14----14-14----14-14----| 
|-------------------------------------------------------------------------------------------------| 
|-------------------------------------------------13----13-13----13-13----13----13-13----13-13----| 
|-------------------------------------------------------------------------------------------------| 
 
|Guitars 3 and 4 (two guitars arranged for one) 

 
|-------------------------------------------------------------------------------------------------| 
|-------------------------------------------------------------------------------------------------| 
|-------------------------------------------------------------------------------------------------| 
|-7--------x--7--------x--7-----------------------7--------x--7--------x--7-----------------------| 
|-7--------x--7--------x--7-----------------------7--------x--7--------x--7-----------------------| 
|-7--------x--7--------x--7-----------------------7--------x--7--------x--7-----------------------| 
 
|Guitar 1 
| 
 
|-------------------------------------------------------------------------------------------------| 
|-------------------------------------------------------------------------------------------------| 
|----------------------------------14----14----------------------------------------14----14-------| 
|----------------------------------x-----x-----------------------------------------x-----x--------| 
|----------------------------------12----12----------------------------------------12----12-------| 
|-------------------------------------------------------------------------------------------------| 
 
|Guitar 2 

 
|-------------------------------------------------------------------------------------------------| 
|-------------------------------------------------------------------------------------------------| 
|-------------------------------------------------------------------------------------------------| 
|-7--------x--7--------x--7-----------------------------------------------------------------------| 
|-7--------x--7--------x--7-----------------------------------------------------------------------| 
|-7--------x--7--------x--7-----------------------------------------------------------------------| 
 
|Guitar 1 
| 
 
|-------------------------------------------------------------------------------------------------| 
|-------------------------------------------------------------------------------------------------| 
|----------------------------------14----14-------------------------------------------------------| 
|----------------------------------x-----x--------------------------------------------------------| 
|----------------------------------12----12-------------------------------------------------------| 
|-------------------------------------------------------------------------------------------------| 
 
|Guitar 2 
| 
 
|-------------------------------------------------------------------------------------------------| 
|----------------------------------------------------11-------11-------11----11-------11-------11-| 
|-------------------------------------------------14----14-14----14-14----14----14-14----14-14----| 
|-------------------------------------------------------------------------------------------------| 
|-------------------------------------------------13----13-13----13-13----13----13-13----13-13----| 
|-------------------------------------------------------------------------------------------------| 
 
|Guitars 3 and 4 (two guitars arranged for one) 

Pre-Chorus - Guitar 5 
 
|-------------------------------------------------------------------------------------------------| 
|-------------------------------------------------------------------------------------------------| 
|-------------------------------------------------------------------------------------------------| 
|-7-----------------x-----x-----------5*----------7-----------------x-----x-----------5*----------| 
|-0-----------------x-----x-----3*----------------0-----------------x-----x-----3*----------------| 
|-------------------x-----x--------0-------(5*)---------------------x-----x--------0-------(5*)---| 
 

 
|-------------------------------------------------------------------------------------------------| 
|----------------------------------------------------11-------11-------11----11-------11-------11-| 
|-------------------------------------------------14----14-14----14-14----14----14-14----14-14----| 
|-------------------------------------------------------------------------------------------------| 
|-------------------------------------------------13----13-13----13-13----13----13-13----13-13----| 
|-------------------------------------------------------------------------------------------------| 
 
|Guitars 3 and 4 (two guitars arranged for one) 
| 
 
|-------------------------------------------------------------------------------------------------| 
|-------------------------------------------------------------------------------------------------| 
|-------------------------------------------------------------------------------------------------| 
|-7-----------------x-----x-----------5*----------7-----------------x-----x-----------5*----------| 
|-0-----------------x-----x-----3*----------------0-----------------x-----x-----3*----------------| 
|-------------------x-----x--------0-------(5*)---------------------x-----x--------0-------(5*)---| 
 
|Guitar 5 

Chorus 
 
|-------------------------------------------------------------------------------------------------| 
|-------------------------------------------------------------------------------------------------| 
|-------------------------------------------------------------------------------------------------| 
|-7--------x--7--------x--7-----------------------7--------x--7--------x--7-----------------------| 
|-7--------x--7--------x--7-----------------------7--------x--7--------x--7-----------------------| 
|-7--------x--7--------x--7-----------------------7--------x--7--------x--7-----------------------| 
 
|Guitar 1 
| 
 
|-------------------------------------------------------------------------------------------------| 
|-------------------------------------------------------------------------------------------------| 
|----------------------------------14----14----------------------------------------14----14-------| 
|----------------------------------x-----x-----------------------------------------x-----x--------| 
|----------------------------------12----12----------------------------------------12----12-------| 
|-------------------------------------------------------------------------------------------------| 
 
|Guitar 2 

 
|-------------------------------------------------------------------------------------------------| 
|-------------------------------------------------------------------------------------------------| 
|-------------------------------------------------------------------------------------------------| 
|-7--------x--7--------x--7-----------------------------------------------------------------------| 
|-7--------x--7--------x--7-----------------------------------------------------------------------| 
|-7--------x--7--------x--7-----------------------------------------------------------------------| 
 
|Guitar 1 
| 
 
|-------------------------------------------------------------------------------------------------| 
|-------------------------------------------------------------------------------------------------| 
|----------------------------------14----14-------------------------------------------------------| 
|----------------------------------x-----x--------------------------------------------------------| 
|----------------------------------12----12-------------------------------------------------------| 
|-------------------------------------------------------------------------------------------------| 
 
|Guitar 2 
| 
 
|-------------------------------------------------------------------------------------------------| 
|----------------------------------------------------11-------11-------11----11-------11-------11-| 
|-------------------------------------------------14----14-14----14-14----14----14-14----14-14----| 
|-------------------------------------------------------------------------------------------------| 
|-------------------------------------------------13----13-13----13-13----13----13-13----13-13----| 
|-------------------------------------------------------------------------------------------------| 
 
|Guitars 3 and 4 (two guitars arranged for one) 

(No guitar in first part of second verse) 

2nd Verse Part 2 - Guitars 3 and 4 (two guitars arranged for one) 
 
|-------------------------------------------------------------------------------------------------| 
|----------------------------------------------------11-------11-------11----11-------11-------11-| 
|-------------------------------------------------14----14-14----14-14----14----14-14----14-14----| 
|-------------------------------------------------------------------------------------------------| 
|-------------------------------------------------13----13-13----13-13----13----13-13----13-13----| 
|-------------------------------------------------------------------------------------------------| 
 

 
|-------------------------------------------------------------------------------------------------| 
|-------------------------------------------------------------------------------------------------| 
|-------------------------------------------------------------------------------------------------| 
|-7--------x--7--------x--7-----------------------7--------x--7--------x--7-----------------------| 
|-7--------x--7--------x--7-----------------------7--------x--7--------x--7-----------------------| 
|-7--------x--7--------x--7-----------------------7--------x--7--------x--7-----------------------| 
 
|Guitar 1 
| 
 
|-------------------------------------------------------------------------------------------------| 
|-------------------------------------------------------------------------------------------------| 
|----------------------------------14----14----------------------------------------14----14-------| 
|----------------------------------x-----x-----------------------------------------x-----x--------| 
|----------------------------------12----12----------------------------------------12----12-------| 
|-------------------------------------------------------------------------------------------------| 
 
|Guitar 2 

 
|-------------------------------------------------------------------------------------------------| 
|-------------------------------------------------------------------------------------------------| 
|-------------------------------------------------------------------------------------------------| 
|-7--------x--7--------x--7-----------------------------------------------------------------------| 
|-7--------x--7--------x--7-----------------------------------------------------------------------| 
|-7--------x--7--------x--7-----------------------------------------------------------------------| 
 
|Guitar 1 
| 
 
|-------------------------------------------------------------------------------------------------| 
|-------------------------------------------------------------------------------------------------| 
|----------------------------------14----14-------------------------------------------------------| 
|----------------------------------x-----x--------------------------------------------------------| 
|----------------------------------12----12-------------------------------------------------------| 
|-------------------------------------------------------------------------------------------------| 
 
|Guitar 2 
| 
 
|-------------------------------------------------------------------------------------------------| 
|----------------------------------------------------11-------11-------11----11-------11-------11-| 
|-------------------------------------------------14----14-14----14-14----14----14-14----14-14----| 
|-------------------------------------------------------------------------------------------------| 
|-------------------------------------------------13----13-13----13-13----13----13-13----13-13----| 
|-------------------------------------------------------------------------------------------------| 
 
|Guitars 3 and 4 (two guitars arranged for one) 

 
|-------------------------------------------------------------------------------------------------| 
|-------------------------------------------------------------------------------------------------| 
|-------------------------------------------------------------------------------------------------| 
|-7--------x--7--------x--7-----------------------7--------x--7--------x--7-----------------------| 
|-7--------x--7--------x--7-----------------------7--------x--7--------x--7-----------------------| 
|-7--------x--7--------x--7-----------------------7--------x--7--------x--7-----------------------| 
 
|Guitar 1 
| 
 
|-------------------------------------------------------------------------------------------------| 
|-------------------------------------------------------------------------------------------------| 
|----------------------------------14----14----------------------------------------14----14-------| 
|----------------------------------x-----x-----------------------------------------x-----x--------| 
|----------------------------------12----12----------------------------------------12----12-------| 
|-------------------------------------------------------------------------------------------------| 
 
|Guitar 2 

 
|-------------------------------------------------------------------------------------------------| 
|-------------------------------------------------------------------------------------------------| 
|-------------------------------------------------------------------------------------------------| 
|-7--------x--7--------x--7-----------------------------------------------------------------------| 
|-7--------x--7--------x--7-----------------------------------------------------------------------| 
|-7--------x--7--------x--7-----------------------------------------------------------------------| 
 
|Guitar 1 
| 
 
|-------------------------------------------------------------------------------------------------| 
|-------------------------------------------------------------------------------------------------| 
|----------------------------------14----14-------------------------------------------------------| 
|----------------------------------x-----x--------------------------------------------------------| 
|----------------------------------12----12-------------------------------------------------------| 
|-------------------------------------------------------------------------------------------------| 
 
|Guitar 2 
| 
 
|-------------------------------------------------------------------------------------------------| 
|----------------------------------------------------11-------11-------11----11-------11-------11-| 
|-------------------------------------------------14----14-14----14-14----14----14-14----14-14----| 
|-------------------------------------------------------------------------------------------------| 
|-------------------------------------------------13----13-13----13-13----13----13-13----13-13----| 
|-------------------------------------------------------------------------------------------------| 
 
|Guitars 3 and 4 (two guitars arranged for one) 

Pre-Chorus - Guitar 5 
 
|-------------------------------------------------------------------------------------------------| 
|-------------------------------------------------------------------------------------------------| 
|-------------------------------------------------------------------------------------------------| 
|-7-----------------x-----x-----------5*----------7-----------------x-----x-----------5*----------| 
|-0-----------------x-----x-----3*----------------0-----------------x-----x-----3*----------------| 
|-------------------x-----x--------0-------(5*)---------------------x-----x--------0-------(5*)---| 
 

 
|-------------------------------------------------------------------------------------------------| 
|----------------------------------------------------11-------11-------11----11-------11-------11-| 
|-------------------------------------------------14----14-14----14-14----14----14-14----14-14----| 
|-------------------------------------------------------------------------------------------------| 
|-------------------------------------------------13----13-13----13-13----13----13-13----13-13----| 
|-------------------------------------------------------------------------------------------------| 
 
|Guitars 3 and 4 (two guitars arranged for one) 
| 
 
|-------------------------------------------------------------------------------------------------| 
|-------------------------------------------------------------------------------------------------| 
|-------------------------------------------------------------------------------------------------| 
|-7-----------------x-----x-----------5*----------7-----------------x-----x-----------5*----------| 
|-0-----------------x-----x-----3*----------------0-----------------x-----x-----3*----------------| 
|-------------------x-----x--------0-------(5*)---------------------x-----x--------0-------(5*)---| 
 
|Guitar 5 

Chorus 
 
|-------------------------------------------------------------------------------------------------| 
|-------------------------------------------------------------------------------------------------| 
|-------------------------------------------------------------------------------------------------| 
|-7--------x--7--------x--7-----------------------7--------x--7--------x--7-----------------------| 
|-7--------x--7--------x--7-----------------------7--------x--7--------x--7-----------------------| 
|-7--------x--7--------x--7-----------------------7--------x--7--------x--7-----------------------| 
 
|Guitar 1 
| 
 
|-------------------------------------------------------------------------------------------------| 
|-------------------------------------------------------------------------------------------------| 
|----------------------------------14----14----------------------------------------14----14-------| 
|----------------------------------x-----x-----------------------------------------x-----x--------| 
|----------------------------------12----12----------------------------------------12----12-------| 
|-------------------------------------------------------------------------------------------------| 
 
|Guitar 2 

 
|-------------------------------------------------------------------------------------------------| 
|-------------------------------------------------------------------------------------------------| 
|-------------------------------------------------------------------------------------------------| 
|-7--------x--7--------x--7-----------------------7--------x--7--------x--7-----------------------| 
|-7--------x--7--------x--7-----------------------7--------x--7--------x--7-----------------------| 
|-7--------x--7--------x--7-----------------------7--------x--7--------x--7-----------------------| 
 
|Guitar 1 
| 
 
|-------------------------------------------------------------------------------------------------| 
|-------------------------------------------------------------------------------------------------| 
|----------------------------------14----14----------------------------------------14----14-------| 
|----------------------------------x-----x-----------------------------------------x-----x--------| 
|----------------------------------12----12----------------------------------------12----12-------| 
|-------------------------------------------------------------------------------------------------| 
 
|Guitar 2 
| 
 
|-------------------------------------------------------------------------------------------------| 
|----------------------------------------------------11-------11-------11----11-------11-------11-| 
|-------------------------------------------------14----14-14----14-14----14----14-14----14-14----| 
|-------------------------------------------------------------------------------------------------| 
|-------------------------------------------------13----13-13----13-13----13----13-13----13-13----| 
|-------------------------------------------------------------------------------------------------| 
 
|Guitars 3 and 4 (two guitars arranged for one) 

 
|-------------------------------------------------------------------------------------------------| 
|-------------------------------------------------------------------------------------------------| 
|-------------------------------------------------------------------------------------------------| 
|-7--------x--7--------x--7-----------------------7--------x--7--------x--7-----------------------| 
|-7--------x--7--------x--7-----------------------7--------x--7--------x--7-----------------------| 
|-7--------x--7--------x--7-----------------------7--------x--7--------x--7-----------------------| 
 
|Guitar 1 
| 
 
|-------------------------------------------------------------------------------------------------| 
|-------------------------------------------------------------------------------------------------| 
|----------------------------------14----14----------------------------------------14----14-------| 
|----------------------------------x-----x-----------------------------------------x-----x--------| 
|----------------------------------12----12----------------------------------------12----12-------| 
|-------------------------------------------------------------------------------------------------| 
 
|Guitar 2 

 
|-------------------------------------------------------------------------------------------------| 
|-------------------------------------------------------------------------------------------------| 
|-------------------------------------------------------------------------------------------------| 
|-7--------x--7--------x--7-----------------------------------------------------------------------| 
|-7--------x--7--------x--7-----------------------------------------------------------------------| 
|-7--------x--7--------x--7-----------------------------------------------------------------------| 
 
|Guitar 1 
| 
 
|-------------------------------------------------------------------------------------------------| 
|-------------------------------------------------------------------------------------------------| 
|----------------------------------14----14-------------------------------------------------------| 
|----------------------------------x-----x--------------------------------------------------------| 
|----------------------------------12----12-------------------------------------------------------| 
|-------------------------------------------------------------------------------------------------| 
 
|Guitar 2 
| 
 
|-------------------------------------------------------------------------------------------------| 
|----------------------------------------------------11-------11-------11----11-------11-------11-| 
|-------------------------------------------------14----14-14----14-14----14----14-14----14-14----| 
|-------------------------------------------------------------------------------------------------| 
|-------------------------------------------------13----13-13----13-13----13----13-13----13-13----| 
|-------------------------------------------------------------------------------------------------| 
 
|Guitars 3 and 4 (two guitars arranged for one) 

Breakdown - Guitar 6 
 
|-------------------------------------------------------------------------------------------------| 
|-------------------------------------------------------------------------------------------------| 
|-------------------------------------14-14-14-14-------------14-14-14-14-------------14-14-14-14-| 
|-13-13-13-13-13-13-13-13-14-14-14-14-14-14-14-14-14-14-14-14-14-14-14-14-14-14-14-14-14-14-14-14-| 
|-11-11-11-11-11-11-11-11-12-12-12-12-12-12-12-12-12-12-12-12-12-12-12-12-12-12-12-12-12-12-12-12-| 
|-------------------------------------------------------------------------------------------------| 
 

 
|-------------------------------------------------------------------------------------------------| 
|-------------------------------------------------------------------------------------------------| 
|-------------------------------------14-14-14-14-------------14-14-14-14-------------14-14-14-14-| 
|-13-13-13-13-13-13-13-13-14-14-14-14-14-14-14-14-14-14-14-14-14-14-14-14-14-14-14-14-14-14-14-14-| 
|-11-11-11-11-11-11-11-11-12-12-12-12-12-12-12-12-12-12-12-12-12-12-12-12-12-12-12-12-12-12-12-12-| 
|-------------------------------------------------------------------------------------------------| 
 

 
|-------------------------------------------------------------------------------------------------| 
|-------------------------------------------------------------------------------------------------| 
|-------------------------------------14-14-14-14-------------14-14-14-14-------------14-14-14-14-| 
|-13-13-13-13-13-13-13-13-14-14-14-14-14-14-14-14-14-14-14-14-14-14-14-14-14-14-14-14-14-14-14-14-| 
|-11-11-11-11-11-11-11-11-12-12-12-12-12-12-12-12-12-12-12-12-12-12-12-12-12-12-12-12-12-12-12-12-| 
|-------------------------------------------------------------------------------------------------| 
 

 
|-------------------------------------------------------------------------------------------------| 
|-------------------------------------------------------------------------------------------------| 
|-------------------------------------14-14-14-14-------------14-14-14-14-------------14-14-14-14-| 
|-13-13-13-13-13-13-13-13-14-14-14-14-14-14-14-14-14-14-14-14-14-14-14-14-14-14-14-14-14-14-14-14-| 
|-11-11-11-11-11-11-11-11-12-12-12-12-12-12-12-12-12-12-12-12-12-12-12-12-12-12-12-12-12-12-12-12-| 
|-------------------------------------------------------------------------------------------------| 
 

Bridge 
 
|-------------------------------------------------------------------------------------------------| 
|-------------------------------------------------------------------------------------------------| 
|-------------------------------------------------------------------------------------------------| 
|-8--------x--8--------x--7-----------------------------------------------------------------------| 
|-8--------x--8--------x--7-----------------------------------------------------------------------| 
|-8--------x--8--------x--7-----------------------------------------------------------------------| 
 
|Guitar 1 
| 
 
|-------------------------------------------------------------------------------------------------| 
|-------------------------------------------------------------------------------------------------| 
|----------------------------------14----14-------------------------------------------------------| 
|----------------------------------x-----x--------------------------------------------------------| 
|----------------------------------12----12-------------------------------------------------------| 
|-------------------------------------------------------------------------------------------------| 
 
|Guitar 2 
| 
 
|-------------------------------------------------------------------------------------------------| 
|-------------------------------------------------------------------------------------------------| 
|-------------------------------------14-14-14-14-------------14-14-14-14-------------14-14-14-14-| 
|-13-13-13-13-13-13-13-13-14-14-14-14-14-14-14-14-14-14-14-14-14-14-14-14-14-14-14-14-14-14-14-14-| 
|-11-11-11-11-11-11-11-11-12-12-12-12-12-12-12-12-12-12-12-12-12-12-12-12-12-12-12-12-12-12-12-12-| 
|-------------------------------------------------------------------------------------------------| 
 
|Guitar 6 
| 
 
|-------------------12----12----------------12----12----------------12----12b13r12----10----------| 
|-------------------------------------------------------------------------------------------11----| 
|-------------------------------------------------------------------------------------------------| 
|-------------------------------------------------------------------------------------------------| 
|-------------------------------------------------------------------------------------------------| 
|-------------------------------------------------------------------------------------------------| 
 
|Guitar 7 

 
|-------------------------------------------------------------------------------------------------| 
|-------------------------------------------------------------------------------------------------| 
|-------------------------------------------------------------------------------------------------| 
|-8--------x--8--------x--7-----------------------------------------------------------------------| 
|-8--------x--8--------x--7-----------------------------------------------------------------------| 
|-8--------x--8--------x--7-----------------------------------------------------------------------| 
 
|Guitar 1 
| 
 
|-------------------------------------------------------------------------------------------------| 
|-------------------------------------------------------------------------------------------------| 
|----------------------------------14----14-------------------------------------------------------| 
|----------------------------------x-----x--------------------------------------------------------| 
|----------------------------------12----12-------------------------------------------------------| 
|-------------------------------------------------------------------------------------------------| 
 
|Guitar 2 
| 
 
|-------------------------------------------------------------------------------------------------| 
|----------------------------------------------------11-------11-------11----11-------11-------11-| 
|-------------------------------------------------14----14-14----14-14----14----14-14----14-14----| 
|-------------------------------------------------------------------------------------------------| 
|-------------------------------------------------13----13-13----13-13----13----13-13----13-13----| 
|-------------------------------------------------------------------------------------------------| 
 
|Guitars 3 and 4 (two guitars arranged for one) 
| 
 
|-------------------------------------------------------------------------------------------------| 
|-------------------------------------------------------------------------------------------------| 
|-------------------------------------14-14-14-14-------------14-14-14-14-------------14-14-14-14-| 
|-13-13-13-13-13-13-13-13-14-14-14-14-14-14-14-14-14-14-14-14-14-14-14-14-14-14-14-14-14-14-14-14-| 
|-11-11-11-11-11-11-11-11-12-12-12-12-12-12-12-12-12-12-12-12-12-12-12-12-12-12-12-12-12-12-12-12-| 
|-------------------------------------------------------------------------------------------------| 
 
|Guitar 6 
| 
 
|-------------------12----12----------------12----12----------------12----12b13r12----10----------| 
|-------------------------------------------------------------------------------------------11----| 
|-------------------------------------------------------------------------------------------------| 
|-------------------------------------------------------------------------------------------------| 
|-------------------------------------------------------------------------------------------------| 
|-------------------------------------------------------------------------------------------------| 
 
|Guitar 7 

 
|-------------------------------------------------------------------------------------------------| 
|-------------------------------------------------------------------------------------------------| 
|-------------------------------------------------------------------------------------------------| 
|-8--------x--8--------x--7-----------------------------------------------------------------------| 
|-8--------x--8--------x--7-----------------------------------------------------------------------| 
|-8--------x--8--------x--7-----------------------------------------------------------------------| 
 
|Guitar 1 
| 
 
|-------------------------------------------------------------------------------------------------| 
|-------------------------------------------------------------------------------------------------| 
|----------------------------------14----14-------------------------------------------------------| 
|----------------------------------x-----x--------------------------------------------------------| 
|----------------------------------12----12-------------------------------------------------------| 
|-------------------------------------------------------------------------------------------------| 
 
|Guitar 2 
| 
 
|-------------------------------------------------------------------------------------------------| 
|-------------------------------------------------------------------------------------------------| 
|-------------------------------------14-14-14-14-------------14-14-14-14-------------14-14-14-14-| 
|-13-13-13-13-13-13-13-13-14-14-14-14-14-14-14-14-14-14-14-14-14-14-14-14-14-14-14-14-14-14-14-14-| 
|-11-11-11-11-11-11-11-11-12-12-12-12-12-12-12-12-12-12-12-12-12-12-12-12-12-12-12-12-12-12-12-12-| 
|-------------------------------------------------------------------------------------------------| 
 
|Guitar 6 
| 
 
|-------------------12----12----------------12----12----------------12----12b13r12----10----------| 
|-------------------------------------------------------------------------------------------11----| 
|-------------------------------------------------------------------------------------------------| 
|-------------------------------------------------------------------------------------------------| 
|-------------------------------------------------------------------------------------------------| 
|-------------------------------------------------------------------------------------------------| 
 
|Guitar 7 

 
|-------------------------------------------------------------------------------------------------| 
|-------------------------------------------------------------------------------------------------| 
|-------------------------------------------------------------------------------------------------| 
|-8--------x--8--------x--7-----------------------------------------------------------------------| 
|-8--------x--8--------x--7-----------------------------------------------------------------------| 
|-8--------x--8--------x--7-----------------------------------------------------------------------| 
 
|Guitar 1 
| 
 
|-------------------------------------------------------------------------------------------------| 
|-------------------------------------------------------------------------------------------------| 
|----------------------------------14----14-------------------------------------------------------| 
|----------------------------------x-----x--------------------------------------------------------| 
|----------------------------------12----12-------------------------------------------------------| 
|-------------------------------------------------------------------------------------------------| 
 
|Guitar 2 
| 
 
|-------------------------------------------------------------------------------------------------| 
|----------------------------------------------------11-------11-------11----11-------11-------11-| 
|-------------------------------------------------14----14-14----14-14----14----14-14----14-14----| 
|-------------------------------------------------------------------------------------------------| 
|-------------------------------------------------13----13-13----13-13----13----13-13----13-13----| 
|-------------------------------------------------------------------------------------------------| 
 
|Guitars 3 and 4 (two guitars arranged for one) 
| 
 
|-------------------------------------------------------------------------------------------------| 
|-------------------------------------------------------------------------------------------------| 
|-------------------------------------14-14-14-14-------------14-14-14-14-------------14-14-14-14-| 
|-13-13-13-13-13-13-13-13-14-14-14-14-14-14-14-14-14-14-14-14-14-14-14-14-14-14-14-14-14-14-14-14-| 
|-11-11-11-11-11-11-11-11-12-12-12-12-12-12-12-12-12-12-12-12-12-12-12-12-12-12-12-12-12-12-12-12-| 
|-------------------------------------------------------------------------------------------------| 
 
|Guitar 6 (gradually fade out) 
| 
 
|-------------------12----12----------------12----12----------------12----12b13r12----10----------| 
|-------------------------------------------------------------------------------------------11----| 
|-------------------------------------------------------------------------------------------------| 
|-------------------------------------------------------------------------------------------------| 
|-------------------------------------------------------------------------------------------------| 
|-------------------------------------------------------------------------------------------------| 
 
|Guitar 7 

Speech Breakdown 
 
|-------------------------------------------------------------------------------------------------| 
|-------------------------------------------------------------------------------------------------| 
|-------------------------------------------------------------------------------------------------| 
|-8--------x--8--------x--7-----------------------------------------------------------------------| 
|-8--------x--8--------x--7-----------------------------------------------------------------------| 
|-8--------x--8--------x--7-----------------------------------------------------------------------| 
 
|Guitar 1 
| 
 
|-------------------------------------------------------------------------------------------------| 
|-------------------------------------------------------------------------------------------------| 
|----------------------------------14----14-------------------------------------------------------| 
|----------------------------------x-----x--------------------------------------------------------| 
|----------------------------------12----12-------------------------------------------------------| 
|-------------------------------------------------------------------------------------------------| 
 
|Guitar 2 
| 
 
|-------------------------------------------------------------------------------------------------| 
|-------------------------------------------------------------------------------------------------| 
|-------------------------------------14-14-14-14-------------14-14-14-14-------------14-14-14-14-| 
|-13-13-13-13-13-13-13-13-14-14-14-14-14-14-14-14-14-14-14-14-14-14-14-14-14-14-14-14-14-14-14-14-| 
|-11-11-11-11-11-11-11-11-12-12-12-12-12-12-12-12-12-12-12-12-12-12-12-12-12-12-12-12-12-12-12-12-| 
|-------------------------------------------------------------------------------------------------| 
 
|Guitar 6 

(Guitar 6) 
 
|-------------------------------------------------------------------------------------------------| 
|-------------------------------------------------------------------------------------------------| 
|-------------------------------------14-14-14-14-------------14-14-14-14-------------14-14-14-14-| 
|-13-13-13-13-13-13-13-13-14-14-14-14-14-14-14-14-14-14-14-14-14-14-14-14-14-14-14-14-14-14-14-14-| 
|-11-11-11-11-11-11-11-11-12-12-12-12-12-12-12-12-12-12-12-12-12-12-12-12-12-12-12-12-12-12-12-12-| 
|-------------------------------------------------------------------------------------------------| 
 

 
|-------------------------------------------------------------------------------------------------| 
|-------------------------------------------------------------------------------------------------| 
|-------------------------------------------------------------------------------------------------| 
|-8--------x--8--------x--7-----------------------------------------------------------------------| 
|-8--------x--8--------x--7-----------------------------------------------------------------------| 
|-8--------x--8--------x--7-----------------------------------------------------------------------| 
 
|Guitar 1 
| 
 
|-------------------------------------------------------------------------------------------------| 
|-------------------------------------------------------------------------------------------------| 
|----------------------------------14----14-------------------------------------------------------| 
|----------------------------------x-----x--------------------------------------------------------| 
|----------------------------------12----12-------------------------------------------------------| 
|-------------------------------------------------------------------------------------------------| 
 
|Guitar 2 
| 
 
|-------------------------------------------------------------------------------------------------| 
|-------------------------------------------------------------------------------------------------| 
|-------------------------------------14-14-14-14-------------14-14-14-14-------------14-14-14-14-| 
|-13-13-13-13-13-13-13-13-14-14-14-14-14-14-14-14-14-14-14-14-14-14-14-14-14-14-14-14-14-14-14-14-| 
|-11-11-11-11-11-11-11-11-12-12-12-12-12-12-12-12-12-12-12-12-12-12-12-12-12-12-12-12-12-12-12-12-| 
|-------------------------------------------------------------------------------------------------| 
 
|Guitar 6 

 
|-------------------------------------------------------------------------------------------------| 
|-------------------------------------------------------------------------------------------------| 
|-------------------------------------------------------------------------------------------------| 
|-8--------x--8--------x--7-----------------------------------------------------------------------| 
|-8--------x--8--------x--7-----------------------------------------------------------------------| 
|-8--------x--8--------x--7-----------------------------------------------------------------------| 
 
|Guitar 1 
| 
 
|-------------------------------------------------------------------------------------------------| 
|-------------------------------------------------------------------------------------------------| 
|----------------------------------14----14-------------------------------------------------------| 
|----------------------------------x-----x--------------------------------------------------------| 
|----------------------------------12----12-------------------------------------------------------| 
|-------------------------------------------------------------------------------------------------| 
 
|Guitar 2 

(No guitar in rest of speech breakdown) 

Outro 
 
|-------------------------------------------------------------------------------------------------| 
|-------------------------------------------------------------------------------------------------| 
|-------------------------------------------------------------------------------------------------| 
|-8--------x--8--------x--7-----------------------------------------------------------------------| 
|-8--------x--8--------x--7-----------------------------------------------------------------------| 
|-8--------x--8--------x--7-----------------------------------------------------------------------| 
 
|Guitar 1 
| 
 
|-------------------------------------------------------------------------------------------------| 
|-------------------------------------------------------------------------------------------------| 
|----------------------------------14----14-------------------------------------------------------| 
|----------------------------------x-----x--------------------------------------------------------| 
|----------------------------------12----12-------------------------------------------------------| 
|-------------------------------------------------------------------------------------------------| 
 
|Guitar 2 
| 
 
|-------------------12----12----------------12----12----------------12----12b13r12----10----------| 
|-------------------------------------------------------------------------------------------11----| 
|-------------------------------------------------------------------------------------------------| 
|-------------------------------------------------------------------------------------------------| 
|-------------------------------------------------------------------------------------------------| 
|-------------------------------------------------------------------------------------------------| 
 
|Guitar 7 

 
|-------------------------------------------------------------------------------------------------| 
|-------------------------------------------------------------------------------------------------| 
|-------------------------------------------------------------------------------------------------| 
|-8--------x--8--------x--7-----------------------------------------------------------------------| 
|-8--------x--8--------x--7-----------------------------------------------------------------------| 
|-8--------x--8--------x--7-----------------------------------------------------------------------| 
 
|Guitar 1 
| 
 
|-------------------------------------------------------------------------------------------------| 
|-------------------------------------------------------------------------------------------------| 
|----------------------------------14----14-------------------------------------------------------| 
|----------------------------------x-----x--------------------------------------------------------| 
|----------------------------------12----12-------------------------------------------------------| 
|-------------------------------------------------------------------------------------------------| 
 
|Guitar 2 
| 
 
|-------------------12----12----------------12----12----------------12----12b13r12----10----------| 
|-------------------------------------------------------------------------------------------11----| 
|-------------------------------------------------------------------------------------------------| 
|-------------------------------------------------------------------------------------------------| 
|-------------------------------------------------------------------------------------------------| 
|-------------------------------------------------------------------------------------------------| 
 
|Guitar 7 

 
|-------------------------------------------------------------------------------------------------| 
|-------------------------------------------------------------------------------------------------| 
|-------------------------------------------------------------------------------------------------| 
|-8--------x--8--------x--7-----------------------------------------------------------------------| 
|-8--------x--8--------x--7-----------------------------------------------------------------------| 
|-8--------x--8--------x--7-----------------------------------------------------------------------| 
 
|Guitar 1 
| 
 
|-------------------------------------------------------------------------------------------------| 
|-------------------------------------------------------------------------------------------------| 
|----------------------------------14----14-------------------------------------------------------| 
|----------------------------------x-----x--------------------------------------------------------| 
|----------------------------------12----12-------------------------------------------------------| 
|-------------------------------------------------------------------------------------------------| 
 
|Guitar 2 
| 
 
|-------------------12----12----------------12----12----------------12----12b13r12----10----------| 
|-------------------------------------------------------------------------------------------11----| 
|-------------------------------------------------------------------------------------------------| 
|-------------------------------------------------------------------------------------------------| 
|-------------------------------------------------------------------------------------------------| 
|-------------------------------------------------------------------------------------------------| 
 
|Guitar 7 

 
|-------------------------------------------------------------------------------------------------| 
|-------------------------------------------------------------------------------------------------| 
|-------------------------------------------------------------------------------------------------| 
|-8--------x--8--------x--7-----------------------------------------------------------------------| 
|-8--------x--8--------x--7-----------------------------------------------------------------------| 
|-8--------x--8--------x--7-----------------------------------------------------------------------| 
 
|Guitar 1 
| 
 
|-------------------------------------------------------------------------------------------------| 
|-------------------------------------------------------------------------------------------------| 
|----------------------------------14----14-------------------------------------------------------| 
|----------------------------------x-----x--------------------------------------------------------| 
|----------------------------------12----12-------------------------------------------------------| 
|-------------------------------------------------------------------------------------------------| 
 
|Guitar 2 
| 
 
|-------------------12----12----------------12----12----------------12----12b13r12----10----------| 
|-------------------------------------------------------------------------------------------11----| 
|-------------------------------------------------------------------------------------------------| 
|-------------------------------------------------------------------------------------------------| 
|-------------------------------------------------------------------------------------------------| 
|-------------------------------------------------------------------------------------------------| 
 
|Guitar 7 
	  

Search Paypal
auto scroll beats size up size down change color hide chords drawings
tab show chords e-chords YouTube Clip e-chords hide all tabs e-chords go to top tab

share with facebook