System Of A Down

Psycho

System Of A Down

tabs Expert expert

save to print version add songbook text version e-mail correct tuner
chordsukulelecavacokeyboardtabbassdrumsharmonicaflute Guitar Pro
close

there isn't a video lesson for this song

chords

Psycho

Year: 2001 - Album: Toxicity

(Malakian / Tankian)

	  		 
Afinação:(C G C F A D) 
D|---------------------------------------------------------------------| 
A|-17-x-17-x-17-xx-17-x-17-xx-17-x-17-x-17-xx-15-x-15-xx-15-x-15-xx-15-|Repete quantas vezes 
F|---------------------------------------------------------------------|for necessário. 
C|---------------------------------------------------------------------| 
G|---------------------------------------------------------------------| 
C|---------------------------------------------------------------------| 
 
D|------------------|-----| 
A|-xx-15-xx-15-x-15-|-18^-| 
F|------------------|-----|Repete quantas vezes for necessário. 
C|------------------|-----| 
G|------------------|-----| 
C|------------------|-----| 
 
Verso:1 
D|--------------------| 
A|--------------------| 
F|--------------------| 
C|-222--222--222--222-|2x 
G|-222--222--222--222-| 
C|-222--222--222--222-| 
 
Verso:2 
D|---------------------| 
A|---------------------| 
F|---------------------| 
C|-2-xx-2-xx-2-xx-2-xx-|4x 
G|-2-xx-2-xx-2-xx-2-xx-| 
C|-2-xx-2-xx-2-xx-2-xx-| 
Repete Verso:2 
 
Verso:3 
D|--------| 
A|--------| 
F|--------| 
C|-0--3---| 
G|-0--3---| 
C|-0--3---| 
Repete Verso:1 
Repete Verso:2 
Repete Verso:2 
Verso:4 
D|----------------| 
A|----------------| 
F|----------------| 
C|-0---3---2--0-2-| 
G|-0---3---2--0-2-| 
C|-0---3---2--0-2-| 
 
Verso:5 
D|-------------------------------------------------------| 
A|-9--9--9-9-9h10-9-7-7-9-10-12-10-9-10-9-77-7-7-7-7-7x9-| 
F|-x--x--x-x-xxxx-x-x-x-x--x--x--x-x--x-x-xx-x-x-x-x-xxx-| 
C|-6--6--6-6-6h7--6-4-4-6--7--9--7-6--7-6-44-4-4-4-4-4h6-| 
G|-------------------------------------------------------| 
C|-------------------------------------------------------| 
              Repete Verso:1 
              Repete Verso:5 
              Repete Verso:1 
              Repete Verso:2 
              Repete Verso:2 
              Repete Verso:4 
              Repete Verso:5 
              Repete Verso:1 
              Repete Verso:5 
              Repete Verso:1 
 
D|-----------------------------------------------------| 
A|-12--10-12-13--1212-13-12-10-11h12-10-9-9-10-12------| 
F|-----------------------------------------------------| 
C|-----------------------------------------------------| 
G|-----------------------------------------------------| 
C|-----------------------------------------------------| 
 
D|---------------12----------------------------------------------------------------| 
A|-10-12---10-12-----13-12-13-12-10h12h10-10^-12h11-10-99-9-10-9-9-10-12-10-9-10-9-| 
F|---------------------------------------------------------------------------------| 
C|---------------------------------------------------------------------------------| 
G|---------------------------------------------------------------------------------| 
C|---------------------------------------------------------------------------------| 
 
D|--------------------------------------------------------------| 
A|-12-12-12-12-12-12-10-12-13-13-13-12-13-12-10-10-10-10-10-10--| 
F|---9--9--9--9--9--9--9--9--9--9--9--9--9--9--9--9--9--9--9--9-| 
C|--------------------------------------------------------------| 
G|--------------------------------------------------------------| 
C|--------------------------------------------------------------| 
 
D|---------------------------------------------------------------| 
A|-12-12-10-9-9-10-12-12-12-12-12-12-10-12-12-12-12-12-12-10-12--| 
F|---9--9--9-9-------9--9--9--9--9--9--9--9--9--9--9--9--9--9--9-| 
C|---------------------------------------------------------------| 
G|---------------------------------------------------------------| 
C|---------------------------------------------------------------| 
 
D|-10-10-10----------------------------------------| 
A|----------12-13-12-10-10-10-10-10-10-12---10---9-| 
F|---9--9--9--9--9--9--9--9--9--9--9--9---9----9---| 
C|-------------------------------------------------| 
G|-------------------------------------------------| 
C|-------------------------------------------------| 
 
 
 
 
Letra: 
 
Psycho  groupie  cocaine  crazy  
Psycho  groupie  cocaine  crazy  
Psycho groupie cocaine crazy  
Psycho groupie coke  
Makes you high  makes you hide  
Makes you really want to go- stop. 
 
Psycho groupie cocaine crazy 
Psycho groupie coke  
Makes you high  makes you hide  
Do you really want to think and stop  
Stop your eyes from flowing  
 
Psycho  groupie  cocaine  crazy  
Psycho groupie cocaine crazy  
Psycho groupie coke  
Makes you high  makes you hide  
Makes you really want to go - stop. 
Psycho groupie cocaine crazy 
Psycho groupie coke  
Makes you high  makes you hide  
Do you really want to think and stop  
Stop your eyes from flowing out 
 
So you want the world to stop  
Stop in and watch your body fully drop  
From the time you were a 
Psycho  groupie  cocaine  crazy  
 
So you want to see the show  
You really don't have to be a ho 
From the time you were a 
Psycho  groupie  cocaine  crazy. 
 
Psycho  groupie  cocaine  crazy  
Psycho groupie cocaine crazy  
Psycho groupie coke  
Makes you high  makes you hide  
Makes you really want to go - stop. 
 
Psycho groupie cocaine crazy 
Psycho groupie coke  
Makes you high  makes you hide  
Do you really want to think and stop  
Stop your eyes from flowing out 
 
So you want the world to stop  
Rushing to watch your spirit fully drop  
From the time you were a 
Psycho  groupie  cocaine  crazy  
 
So you want to see the show  
You really don't have to be a ho 
From the time you were a 
Psycho  groupie  cocaine  crazy. 
		  

Full key step upFull key step up
Half key step upHalf key step up
Half key step downHalf key step down
Full key step downFull key step down
hide glossary

See also:

tabs Linkin Park - In The End (intro) tabs System Of A Down - Radio Video tabs System Of A Down - Mr. Jack tabs System Of A Down - Kill Rock N Roll tabs Korn - Freak On A Leash tabs System Of A Down - Forest
e-chords

Other versions:

tabs System Of A Down - Psycho tabs Muse - Psycho tabs Puddle of Mudd - Psycho (ver. 2) tabs System Of A Down - Psycho (ver. 2) tabs System Of A Down - Psycho (ver. 3) tabs System Of A Down - Psycho (ver. 4)
auto scroll beats size up size down change color hide chords drawings
tab show chords e-chords YouTube Clip e-chords hide all tabs e-chords go to top tab

share