Linkin Park

Little Things Give You Away Tab

Linkin Park

Difficulty: BeginnerBeginner

by Lari%5FPurpleHair

tuner correct add songbook print version text version save to e-mail
chordsukulelecavacokeyboardtabbassdrumsharmonicsflute Guitar Pro
close

there isn't a video lesson for this song

request
chords

Little Things Give You Away

  		I'm not surprised no on else has put up a tab for this on bass yet,  
I hada really hard time hearing the bass, but I know how the guitar  
goes and that helped a lot. I think this is 100%.  The bass comes  
in at verse 2. 

verse 2 
|-------------------------------------------------| 
|-------------------------------------------------| 
|-0-0-0-0-0-0-3-3-3-3-2-0-------------------------| 
|-------------------------0-0-0-0-0-0-0-0-0-0-0-0-| x3 

|-------------------------------------------------------------------------| 
|-------------------------------------------------------------------------| 
|-3-3-3-3-3-3-0-0-0-0-0-0-------------------------3-3-3-3-3-3-------------| 
|-------------------------0-0-0-0-0-0-0-0-0-0-0-0-------------0-0-0-0-0-0-| 

Chorus 2 
|-------------------------| 
|-------------------------| 
|-0-0-0-------------------| 
|-------5-5-5-0-0-0-2-2-2-| x2 

|-------------------------------------------------| 
|-------------------------------------------------| 
|-0-0-0-------3-3-3-------------------------------| 
|-------5-5-5-------0-0-0-3-3-3-3-3-3-2-2-2-5-5-5-| 

Repeat first bar twice again, then: 
|-----------------------------------------------------------| 
|-----------------------------------------------------------| 
|-0-0-0-------3-3-3-----------------------------------------| 
|-------5-5-5-------0-0-0-3-3-3-3-3-3-3-3-3-3-3-3-5-5-5-5-5-| 

Breakdown (Not sure if itís a bass) 
|-----------------------| 
|-14----14----16--------| 
|-----------------------| 
|-----------------------| 

|-----------------------------| 
|-------14--------------------| 
|-14--------14--16----17--16--| 
|-----------------------------| x2 

|---------------------| 
|-14--------16--------| 
|---------------------| 
|---------------------| 

Then play this until the song ends 
|-------------------------------------------------------------------------| 
|-------------------------------------------------------------------------| 
|-------------------------------------------------------------------------| 
|-10-10-10-10-10-10-10-10-10-10-10-10-12-12-12-12-12-12-12-12-12-12-12-12-| 
	  

Search Paypal
auto scroll beats size up size down change color hide chords drawings
tab show chords e-chords YouTube Clip e-chords hide all tabs e-chords go to top tab

share with facebook