Less Than Jake

All My Best Friends Are Metalheads

Less Than Jake

tabs Beginner beginner

by  DEIO.PUNXXX

save to print version add songbook text version e-mail correct tuner
chordsukulelecavacokeyboardtabbassdrumsharmonicaflute Guitar Pro
close

there isn't a video lesson for this song

chords

All My Best Friends Are Metalheads

	  		Legenda:  /   slide crescente 
          \   slide decrescente 
          .   nota abafada 
         ( )  nota opcional, mas q deixa o som mais parecido 
 
Intro: 
 
Parte 1 
 
e|--------------------------------------------------------------------| 
B|--------------------------------------------------------------------| 
G|--9--8--9--9--9--6--6/8--8-----9-----------------9--9--9--9/11--11--| 
D|--9--9--9--9--9--7--7/9--9-----9--9--9--9--9--9--9--9--9--9/11--11--| 
A|--7----------------------------7--7--7--7--7--7---------------------| 
E|--------------------------------------------------------------------| 
 
Parte 2 
 
e|---------------------------------------------------------------------| 
B|---------------------------------------------------------------------| 
G|--9--8--9--9--9--6--6/8--8-----13--13--13--11--13--9--9--9--9--9--9--| 
D|--9--9--9--9--9--7--7/9--9-----11--11--11--11--11--7--7--7--7--7--7--| 
A|--7------------------------------------------------------------------| 
E|---------------------------------------------------------------------| 
 
 
Verso: 
"You think it's strange..." 
 
e|--12--12--12--12--12----5--5--5/7--7--7--7----------|_ 
B|--12--12--12--12--12----5--5--5/7--7--7--7----------| \ 
G|--13--13--13--13--13----6--6--6/8--8--8--8----------| | 
D|--14--14--14--14--14----7--7--7/9--9--9--9----------| |---três vezes 
A|-(12)(12)(12)(12)(12)--(5)(5)(5/7)(7)(7)(7)---------| | 
E|----------------------------------------------------|_/ 
 
 
e|--12--12--12--12--12--12-----5--------7-------------| 
B|--12--12--12--12--12--12-----5--------7-------------| 
G|--13--13--13--13--13--13-----6--------8-------------| 
D|--14--14--14--14--14--14-----7--------9-------------| 
A|--12--12--12--12--12--12-----5--------7-------------| 
E|----------------------------------------------------| 
 
 
Pré-refrão: 
"Do you know about her strength in convictions..." 
 
e|--5--5--5--5--5--5----7--7--7--7--7--7--------------| 
B|--5--5--5--5--5--5----9--9--9--9--9--9--------------| 
G|--6--6--6--6--6--6----9--9--9--9--9--9--------------| 
D|--7--7--7--7--7--7----9--9--9--9--9--9--------------| 
A|--5--5--5--5--5--5----------------------------------| 
E|----------------------------------------------------| 
 
 
Refrão ( eh assim msm, eh só ktá u ritmo ): 
"Keep us from saying anything..." 
 
e|-----------------------------------------------------------------------| 
B|-----------------------------------------------------------------------| 
G|-----------------------------------------------------------------------| 
D|--9---9-9-9---9---9-9-9---9---9-9-9-9---9---9-9-9----------------------| 
A|--9---9-9-9---9---9-9-9---9---9-9-9-9---9---9-9-9----------------------| 
E|--7---7-7-7---7---7-7-7---7---7-7-7-7---7---7-7-7----------------------| 
 
 
Ponte ( essa ponte entra na hr do trombone e do trompete ): 
 
e|---------------------------------------------------------------------------| 
B|---------------------------------------------------------------------------| 
G|--9-9-9-9-8-9--11-11-11--9-8-9----13-13-13--11-11--13-13-13--9-9-9-9-11\9--| 
D|--9-9-9-9-9-9--11-11-11--9-9-9----13-13-13--11-11--13-13-13--9-9-9-9-11\9--| 
A|--7-7-7-7-7-7--9--9--9---7-7-7----11-11-11--9--9---11-11-11--7-7-7-7-9-\7--| 
E|---------------------------------------------------------------------------| 
 
 
Pré-refrão abafado 
 
e|-------------------------------------------------------------------| 
B|-------------------------------------------------------------------| 
G|-----------9-9-9-9-9-9-------------9-9-9-9-9-9---11-11-11-11-11----| 
D|-9-9-9-9---9-9-9-9-9-9--9-9-9-9-9--9-9-9-9-9-9---11-11-11-11-11----| 
A|-9-9-9-9---7-7-7-7-7-7--9-9-9-9-9--7-7-7-7-7-7---9--9--9--9--9-----| 
E|-7-7-7-7----------------7-7-7-7-7----------------------------------| 
   . . . .   . . . . . .  . . . . .  . . . . . .   .  .  .  .  .  
 
 
Ordem: 
 
                _parte 1 
Intro completa /  
               \_parte 2 
 
Verso ( duas vezes ) 
 
Pré-refrão ( quatro vezes ) 
 
Refrão ( duas vezes ) 
 
Verso ( duas vezes ) 
 
Pré-refrão ( quatro vezes ) 
 
Refrão ( duas vezes ) 
 
            _Intro parte 2 ( duas vezes ) 
Interlúdio / 
           \_Ponte 
 
Pré-refrão abafado 
 
Refrão ( oito vezes ) 
 
Intro parte 2  
 
 
 
Mulher naum tira carta d habilitação mas sim porte d arma... 
		  

auto scroll beats size up size down change color hide chords drawings
tab show chords e-chords YouTube Clip e-chords hide all tabs e-chords go to top tab

share