Kvelertak

Ondskapens Galakse

Kvelertak

tabs

by  ALEFFEDERICO

save to print version add songbook text version e-mail correct tuner
chordsukulelecavacokeyboardtabbassdrumsharmonicaflute Guitar Pro
close

there isn't a video lesson for this song

chords

Ondskapens Galakse

	  		
Intro 

Acoustic guitar - Right channel 

    Am 

e||---------------------------------------|| 
B||-----------0--1--3-----3-3-3--1--0-----|| 
G||--------2-----------0---------------0--|| 
D||-----2---------------------------------|| x 4 
A||--0------------------------------------|| 
E||---------------------------------------|| 

Electric rythm guitar 1 - Left channel 

e||---------------------------------------|| 
B||-----------0--1--3-----3-3-3--1--0-----|| 
G||--------2-----------0---------------0--|| 
D||-----2---------------------------------|| x 8 
A||--0------------------------------------|| 
E||---------------------------------------|| 

00:08 

Lead guitar 


e|--12------------------| 
B|------12pb13bd12--10--| 
G|----------------------| 
D|----------------------| 
A|----------------------| 
E|----------------------| 

00:17 

Electric rythm guitar 2 

e|--------------------------------------------------------------| 
B|--------------------------------------------------------------| 
G|---------------9-9--9--7-7-----------------------9-9--9--7-7--| 
D|---------------7-7--7--5-5-----------------------7-7--7--5-5--| 
A|--0-0-0-0-0-0----------0-0--0-0-0-0-0-0-0-0-0-0----------0-0--| 
E|--------------------------------------------------------------| 
    * * * * * *               * * * * * * * * * * 

e|--------------------------------------------------------------| 
B|--------------------------------------------------------------| 
G|-----------7---------------9-9--9--7-7------------------------| 
D|-------7h9-----------------7-7--7--5-5------------------------| 
A|--0-0---------0-0-0-0-0-0----------0-0--0-0-0-0-0-0-0-0-0-0---| 
E|--------------------------------------------------------------| 
    * *         * * * * * *               * * * * * * * * * * 

e|---------------------| 
B|---------------------| 
G|--7-7--7--7----------| 
D|--5-5--4--4--2-------| 
A|----------------3lb--| 
E|---------------------| 

Verse 

00:34 

Electric rythm guitar 1 

e|--------------------------------------------------------------| 
B|--------------------------------------------------------------| 
G|---------------9-9--9--7-7-----------------------9-9--9--7-7--| 
D|---------------7-7--7--5-5-----------------------7-7--7--5-5--| 
A|--0-0-0-0-0-0----------0-0--0-0-0-0-0-0-0-0-0-0----------0-0--| 
E|--------------------------------------------------------------| 
    * * * * * *               * * * * * * * * * * 

e|--------------------------------------------------------------| 
B|--------------------------------------------------------------| 
G|-----------7---------------9-9--9--7-7------------------------| 
D|-------7h9-----------------7-7--7--5-5------------------------| 
A|--0-0---------0-0-0-0-0-0----------0-0--0-0-0-0-0-0-0-0-0-0---| 
E|--------------------------------------------------------------| 
    * *         * * * * * *               * * * * * * * * * * 

e|-----------------------| 
B|-----------------------| 
G|--7-7--7--7-7----------| 
D|--5-5--5--4-4--2-------| 
A|------------------3lb--| 
E|-----------------------| 

e||---------------------------------------|| 
B||-----------0--1--3-----3-3-3--1--0-----|| 
G||--------2-----------0---------------0--|| 
D||-----2---------------------------------|| x 2 
A||--0------------------------------------|| 
E||---------------------------------------|| 

e|--------------------------------------------------------------| 
B|--------------------------------------------------------------| 
G|---------------9-9--9--7-7-----------------------9-9--9--7-7--| 
D|---------------7-7--7--5-5-----------------------7-7--7--5-5--| 
A|--0-0-0-0-0-0----------0-0--0-0-0-0-0-0-0-0-0-0----------0-0--| 
E|--------------------------------------------------------------| 
    * * * * * *               * * * * * * * * * * 

e|--------------------------------------------------------------| 
B|--------------------------------------------------------------| 
G|-----------7---------------9-9--9--7-7------------------------| 
D|-------7h9-----------------7-7--7--5-5------------------------| 
A|--0-0---------0-0-0-0-0-0----------0-0--0-0-0-0-0-0-0-0-0-0---| 
E|--------------------------------------------------------------| 
    * *         * * * * * *               * * * * * * * * * * 

e|----------------------------| 
B|----------------------------| 
G|--7-7--7--7-7---------------| 
D|--5-5--5--4-4-------2-------| 
A|---------------0-0-----3lb--| 
E|----------------------------| 

Chorus 

01:15 

e|-----------------------------------------------------------------| 
B|-----------------------------------------------------------------| 
G|-----------------12--12--12-12-----------------12------14-14-14--| 
D|-----------------12--12--12-12-----------------12------14-14-14--| 
A|--7--7-7--9--10-----------------7--7-7--9--10------12------------| 
E|--5--5-5--7--8------------------5--5-5--7--8-------10------------| 

e|-----------------------------------------------------------------| 
B|-----------------------------------------------------------------| 
G|-----------------12--12--12-12-----------------12------14-14-14--| 
D|-----------------12--12--12-12-----------------12------14-14-14--| 
A|--7--7-7--9--10-----------------7--7-7--9--10------12------------| 
E|--5--5-5--7--8------------------5--5-5--7--8-------10------------| 

Verse 

Electric rythm guitar 1 

01:31 

e||---------------------------------------|| 
B||-----------0--1--3-----3-3-3--1--0-----|| 
G||--2-----2-----------0---------------0--|| 
D||-----2---------------------------------|| x 4 
A||---------------------------------------|| 
E||---------------------------------------|| 

Electric rythm guitar 1 

e|--------------------------------------------------------------| 
B|--------------------------------------------------------------| 
G|---------------9-9--9--7-7-----------------------9-9--9--7-7--| 
D|---------------7-7--7--5-5-----------------------7-7--7--5-5--| 
A|--0-0-0-0-0-0----------0-0--0-0-0-0-0-0-0-0-0-0----------0-0--| 
E|--------------------------------------------------------------| 
    * * * * * *               * * * * * * * * * * 

e|--------------------------------------------------------------| 
B|--------------------------------------------------------------| 
G|-----------7---------------9-9--9--7-7------------------------| 
D|-------7h9-----------------7-7--7--5-5------------------------| 
A|--0-0---------0-0-0-0-0-0----------0-0--0-0-0-0-0-0-0-0-0-0---| 
E|--------------------------------------------------------------| 
    * *         * * * * * *               * * * * * * * * * * 

e|----------------------------| 
B|----------------------------| 
G|--7-7--7--7-7---------------| 
D|--5-5--5--4-4-------2-------| 
A|---------------0-0-----3lb--| 
E|----------------------------| 

Chorus 

01:48 

e|-----------------------------------------------------------------| 
B|-----------------------------------------------------------------| 
G|-----------------12--12--12-12-----------------12------14-14-14--| 
D|-----------------12--12--12-12-----------------12------14-14-14--| 
A|--7--7-7--9--10-----------------7--7-7--9--10------12------------| 
E|--5--5-5--7--8------------------5--5-5--7--8-------10------------| 

e|-----------------------------------------------------------------| 
B|-----------------------------------------------------------------| 
G|-----------------12--12--12-12-----------------12------14-14-14--| 
D|-----------------12--12--12-12-----------------12------14-14-14--| 
A|--7--7-7--9--10-----------------7--7-7--9--10------12------------| 
E|--5--5-5--7--8------------------5--5-5--7--8-------10------------| 


Break 

02:04 

Acoustic rythm guitar 

Showing only the chords, listen for the exact strum-patterns 

e|--0--0--0--0--0----0--0--3-----0--| 
B|--1--1--1--1--3----1--1--3--3--1--| 
G|--2--2--2--1--0----2--2--0--2--0--| 
D|--3--2--3--2--4----3--2--0--0--2--| 
A|-----0-----0--5-------0--3-----3--| 
E|-------------------------2--------| 

Lead guitar 
  
e|--------------------------------------------------------| 
B|-----------------8----8----8------------------8---------| 
G|--------9---------------------------9-------------------| 
D|--7--7-----9--10---10---10----7--7-----9--10-----10s12--| 
A|--------------------------------------------------------| 
E|--------------------------------------------------------| 

e|--------------------------------------------------------| 
B|--10----------------------8----8----8---------8--8--8---| 
G|----------------9---------------------------7----7--7---| 
D|------12--7--7-----9--10----10---10---10--9------9--9---| 
A|--------------------------------------------------------| 
E|--------------------------------------------------------| 

e|--------------------| 
B|--7-7-7-7-7-7-7--5--| 
G|--7-7-7-7-7-7-7--5--| 
D|--7-7-7-7-7-7-7--5--| 
A|--5-5-5-5-5-5-5--3--| 
E|--------------------| 

Verse 

02:20 

e||---------------------------------------|| 
B||-----------0--1--3-----3-3-3--1--0-----|| 
G||--2-----2-----------0---------------0--|| 
D||-----2---------------------------------|| x 2 
A||---------------------------------------|| 
E||---------------------------------------|| 

e|--------------------------------------------------------------| 
B|--------------------------------------------------------------| 
G|---------------9-9--9--7-7-----------------------9-9--9--7-7--| 
D|---------------7-7--7--5-5-----------------------7-7--7--5-5--| 
A|--0-0-0-0-0-0----------0-0--0-0-0-0-0-0-0-0-0-0----------0-0--| 
E|--------------------------------------------------------------| 
    * * * * * *               * * * * * * * * * * 

e|--------------------------------------------------------------| 
B|--------------------------------------------------------------| 
G|-----------7---------------9-9--9--7-7------------------------| 
D|-------7h9-----------------7-7--7--5-5------------------------| 
A|--0-0---------0-0-0-0-0-0----------0-0--0-0-0-0-0-0-0-0-0-0---| 
E|--------------------------------------------------------------| 
    * *         * * * * * *               * * * * * * * * * * 

e|----------------------------| 
B|----------------------------| 
G|--7-7--7--7-7---------------| 
D|--5-5--5--4-4-------2-------| 
A|---------------0-0-----3lb--| 
E|----------------------------| 

Chorus 

02:45 

e|-----------------------------------------------------------------| 
B|-----------------------------------------------------------------| 
G|-----------------12--12--12-12-----------------12------14-14-14--| 
D|-----------------12--12--12-12-----------------12------14-14-14--| 
A|--7--7-7--9--10-----------------7--7-7--9--10------12------------| 
E|--5--5-5--7--8------------------5--5-5--7--8-------10------------| 

e|-----------------------------------------------------------------| 
B|-----------------------------------------------------------------| 
G|-----------------12--12--12-12-----------------12------14-14-14--| 
D|-----------------12--12--12-12-----------------12------14-14-14--| 
A|--7--7-7--9--10-----------------7--7-7--9--10------12------------| 
E|--5--5-5--7--8------------------5--5-5--7--8-------10------------| 

Break 1, Chorus with other rythm 

03:00 

e|-----------------------------------------------------------------| 
B|-----------------------------------------------------------------| 
G|-----------------12--12--12-12-----------------12------14-14-14--| 
D|-----------------12--12--12-12-----------------12------14-14-14--| 
A|--7--7-7--9--10-----------------7--7-7--9--10------12------------| 
E|--5--5-5--7--8------------------5--5-5--7--8-------10------------| 

e|-----------------------------------------------------------------| 
B|-----------------------------------------------------------------| 
G|-----------------12--12--12-12-----------------12------14-14-14--| 
D|-----------------12--12--12-12-----------------12------14-14-14--| 
A|--7--7-7--9--10-----------------7--7-7--9--10------12------------| 
E|--5--5-5--7--8------------------5--5-5--7--8-------10------------| 

Break 2 

03:15 

Acoustic rythm guitar 

Showing only the chords, listen for the exact strum-patterns 

e|--0--0--0--0--0----0--0--3-----0--| 
B|--1--1--1--1--3----1--1--3--3--1--| 
G|--2--2--2--1--0----2--2--0--2--0--| 
D|--3--2--3--2--4----3--2--0--0--2--| 
A|-----0-----0--5-------0--3-----3--| 
E|-------------------------2--------| 

e|--0--0--0--0--0----0--0--3--| 
B|--1--1--1--1--3----1--1--3--| 
G|--2--2--2--1--0----2--2--0--| 
D|--3--2--3--2--4----3--2--0--| 
A|-----0-----0--5-------0--3--| 
E|-------------------------2--| 

Lead guitar 
  
e|--------------------------------------------------------| 
B|-----------------8----8----8------------------8---------| 
G|--------9---------------------------9-------------------| 
D|--7--7-----9--10---10---10----7--7-----9--10-----10s12--| 
A|--------------------------------------------------------| 
E|--------------------------------------------------------| 

e|--------------------------------------------------------| 
B|--10----------------------8----8----8---------8--8--8---| 
G|----------------9---------------------------7----7--7---| 
D|------12--7--7-----9--10----10---10---10--9------9--9---| 
A|--------------------------------------------------------| 
E|--------------------------------------------------------| 

e|--------------------| 
B|--7-7-7-7-7-7-7--5--| 
G|--7-7-7-7-7-7-7--5--| 
D|--7-7-7-7-7-7-7--5--| 
A|--5-5-5-5-5-5-5--3--| 
E|--------------------| 

e|--------------------------------------------------------| 
B|-----------------8----8----8------------------8---------| 
G|--------9---------------------------9-------------------| 
D|--7--7-----9--10---10---10----7--7-----9--10-----10s12--| 
A|--------------------------------------------------------| 
E|--------------------------------------------------------| 

e|-------------------------------------------------| 
B|--10----------------------8----8----8---------8--| 
G|----------------9---------------------------7----| 
D|------12--7--7-----9--10----10---10---10--9------| 
A|-------------------------------------------------| 
E|-------------------------------------------------| 

e|-------------| 
B|--8-8-8-8-8--| 
G|--7-7-7-7-7--| 
D|--9-9-9-9-9--| 
A|-------------| 
E|-------------| 

Break 3 

03:45 

Rythm guitar 1 


e|-----------------------------------------------------| 
B|-----------------8-------------------8-------10------| 
G|--------9-------------------9------------------------| 
D|--7--7-----9--10------7--7-----9--10---10s12-----12--| 
A|-----------------------------------------------------| 
E|-----------------------------------------------------| 

e||--------------------------------------------------------------|| 
B||-----------------8----8----8-------------------8-------10-----|| 
G||--------9----------------------------9------------------------|| 
D||--7--7-----9--10---10---10---10-7--7-----9--10---10s12----12--|| x 7 
A||--------------------------------------------------------------|| 
E||--------------------------------------------------------------|| 

Rythm guitar 2 

e|--------------------------------------------------------------| 
B|--------------------------------------------------------------| 
G|---------------------------------------------------14-14-14---| 
D|--------9---------12----------9---------12---------14-14-14---| 
A|--0--0-----9--10--------0--0-----9--10------10s12-------------| 
E|--------------------------------------------------------------| 

e||-------------------------------------------------------------|| 
B||-------------------------------------------------------------|| 
G||---------------------------------------------------14-14-14--|| 
D||--------9---------12---------9---------12----------14-14-14--|| x 7 
A||--0--7-----9--10-------0--0-----9--10------10s12-------------|| 
E||-------------------------------------------------------------|| 

Break 4 

04:53 

Rythm guitar 1 

e||-------------------------------|| 
B||-------------------------------|| 
G||-------------------------------|| 
D||----------------5-5-5-5-5-5-5--|| x 7 
A||--7--7-7--9--10-3-3-3-3-3-3-3--|| 
E||--5--5-5--7--8--4-4-4-4-4-4-4--|| 

e|-------------------------------| 
B|-------------------------------| 
G|-------------------------------| 
D|----------------5-5-5-5-5-5-5--|  
A|--7--7-7--9--10-3-3-3-3-3-3-3--| 
E|--5--5-5--7--8--4-4-4-4-4-4-4--|  
		  

Full key step upFull key step up
Half key step upHalf key step up
Half key step downHalf key step down
Full key step downFull key step down
hide glossary

See also:

tabs M2M - Jennifer tabs Kvelertak - Bruane Brenn tabs M2M - Wanna Be Where You Are tabs Audrey Horne - Show And Tell tabs Kvelertak - Ondskapens Galakse tabs M2M - Don't
e-chords

Other versions:

tabs Kvelertak - Ondskapens Galakse
auto scroll beats size up size down change color hide chords drawings
tab show chords e-chords YouTube Clip e-chords hide all tabs e-chords go to top tab

share