Kvelertak

Bruane Brenn

Kvelertak

tabs

by  HUGO_RODRIGUES

save to print version add songbook text version e-mail correct tuner
chordsukulelecavacokeyboardtabbassdrumsharmonicaflute Guitar Pro
close

there isn't a video lesson for this song

chords

Bruane Brenn

	  		Kvelertak - Bruane Brenn 
standard tuning 
Intro 
e------0---------------------------------------------| 
B------0---------------------------------------------| 
G------0-------------------------------12-12-12-9----| 
D--------------------------------------12-12-12-9----| 
A--------------------------------------10-10-10-7----| 
E-7/12----13-13-13\8---5-5\0----9---------------------| 

e-------------------------------------------------------------------------------------------------| 
B-------------------------------------------------------------------------------------------------| 
G-9-9-9-9-9-9-9-9-9-9-9-9-12-12-12-9--9-9-9-9-9-9-9-9-9-9-9-9-12-12-12-8--8-8-8-8-8-8-8-8-8-8-8-8-| 
D-9-9-9-9-9-9-9-9-9-9-9-9-12-12-12-9--9-9-9-9-9-9-9-9-9-9-9-9-12-12-12-8--8-8-8-8-8-8-8-8-8-8-8-8-| 
A-7-7-7-7-7-7-7-7-7-7-7-7-10-10-10-7--7-7-7-7-7-7-7-7-7-7-7-7-10-10-10-6--6-6-6-6-6-6-6-6-6-6-6-6-| 
E-------------------------------------------------------------------------------------------------| 

e------------------------------------------| 
B------------------------------------------| 
G-12-12-12-9--9-9------9-11b-9-11/12\11-9--| 
D-12-12-12-9--9-9-9-12---------------------| 
A-10-10-10-7--7-7--------------------------| 
E------------------------------------------| 

Verse 
e-------------------------------------------------------------------------------------------------| 
B-------------------------------------------------------------------------------------------------| 
G-9-9-9-9-9-9-9-9-9-9-9-9-12-12-12-9--9-9-9-9-9-9-9-9-9-9-9-9-12-12-12-8--8-8-8-8-8-8-8-8-8-8-8-8-| 
D-9-9-9-9-9-9-9-9-9-9-9-9-12-12-12-9--9-9-9-9-9-9-9-9-9-9-9-9-12-12-12-8--8-8-8-8-8-8-8-8-8-8-8-8-| 
A-7-7-7-7-7-7-7-7-7-7-7-7-10-10-10-7--7-7-7-7-7-7-7-7-7-7-7-7-10-10-10-6--6-6-6-6-6-6-6-6-6-6-6-6-| 
E-------------------------------------------------------------------------------------------------| 

e-------------------------------------------------------------------------------------------------| 
B-------------------------------------------------------------------------------------------------| 
G-12-12-12-9--9-9-9-9-9-9-9-9-9-9-9-9-12-12-12-9--9-9-9-9-9-9-9-9-9-9-9-9-12-12-12-9--9-9-9-9-9-9-| 
D-12-12-12-9--9-9-9-9-9-9-9-9-9-9-9-9-12-12-12-9--9-9-9-9-9-9-9-9-9-9-9-9-12-12-12-9--9-9-9-9-9-9-| 
A-10-10-10-7--7-7-7-7-7-7-7-7-7-7-7-7-10-10-10-7--7-7-7-7-7-7-7-7-7-7-7-7-10-10-10-7--7-7-7-7-7-7-| 
E-------------------------------------------------------------------------------------------------| 

e-------------------------------------------------------------------------------------------------| 
B-------------------------------------------------------------------------------------------------| 
G-9-9-9-9-9-9-10-10-10-5--5-5-5-5-5-5-5-5-5-5-5-5-10-10-10-9--9-9-9-9-9-9-9-9-9-9-9-9-12-12-0-----| 
D-9-9-9-9-9-9-10-10-10-5--5-5-5-5-5-5-5-5-5-5-5-5-10-10-10-9--9-9-9-9-9-9-9-9-9-9-9-9-12-12-0-5-5-| 
A-7-7-7-7-7-7-8--8--8--3--3-3-3-3-3-3-3-3-3-3-3-3-8--8--8--7--7-7-7-7-7-7-7-7-7-7-7-7-10-10-0-5-5-| 
E---------------------------------------------------------------------------------------------3-3-| 

Chorus 
e--------------------------------------------------------------------------------------------------| 
B---3-3---5---3----------------3-3-5----------------------3-3---5---3----------------5-------------| 
G-4-----4---4---2-2-2--------4-------4-0-2-5-5-5--------4-----4---4---2-2-2--------4---4-2-0-------| 
D---------------2-2-2-2--2-2---------------5-5-5-5--5-5---------------2-2-2-2--2-2-----------4-0-2-| 
A---------------0-0-0-2--2-2---------------3-3-3-5--5-5---------------0-0-0-2--2-2-----------------| 
E---------------------0--0-0---------------------3--3-3---------------------0--0-0-----------------| 

e-----------------------------------------------------------------------------------------------| 
B----------------3-3---5---3----------------3-3-5----------------------3-3---5---3--------------| 
G-5-5-5--------4-----4---4---2-2-2--------4-------4-0-2-5-5-5--------4-----4---4---2-2-2--------| 
D-5-5-5-5--5-5---------------2-2-2-2--2-2---------------5-5-5-5--5-5---------------2-2-2-2--2-2-| 
A-3-3-3-5--5-5---------------0-0-0-2--2-2---------------3-3-3-5--5-5---------------0-0-0-2--2-2-| 
E-------3--3-3---------------------0--0-0---------------------3--3-3---------------------0--0-0-| 

e----------------------------| 
B----------------------------| 
G--------9-11b-9-11/12\11-9--| 
D-7/9-12---------------------| 
A----------------------------| 
E----------------------------| 

2nd Verse 
e-------------------------------------------------------------------------------------------------| 
B-------------------------------------------------------------------------------------------------| 
G-9-9-9-9-9-9-9-9-9-9-9-9-12-12-12-9--9-9-9-9-9-9-9-9-9-9-9-9-12-12-12-8--8-8-8-8-8-8-8-8-8-8-8-8-| 
D-9-9-9-9-9-9-9-9-9-9-9-9-12-12-12-9--9-9-9-9-9-9-9-9-9-9-9-9-12-12-12-8--8-8-8-8-8-8-8-8-8-8-8-8-| 
A-7-7-7-7-7-7-7-7-7-7-7-7-10-10-10-7--7-7-7-7-7-7-7-7-7-7-7-7-10-10-10-6--6-6-6-6-6-6-6-6-6-6-6-6-| 
E-------------------------------------------------------------------------------------------------| 

e-------------------------------------------------------------------------------------------------| 
B-------------------------------------------------------------------------------------------------| 
G-12-12-12-9--9-9-9-9-9-9-9-9-9-9-9-9-12-12-12----------------------------12-12-12----------------| 
D-12-12-12-9--9-9-9-9-9-9-9-9-9-9-9-9-12-12-12-2--2-2-2-2-2-2-2-2-2-2-2-2-12-12-12-2--2-2-2-2-2-2-| 
A-10-10-10-7--7-7-7-7-7-7-7-7-7-7-7-7-10-10-10-2--2-2-2-2-2-2-2-2-2-2-2-2-10-10-10-2--2-2-2-2-2-2-| 
E----------------------------------------------0--0-0-0-0-0-0-0-0-0-0-0-0----------0--0-0-0-0-0-0-| 

e----------------------------------------------------------------------------------------------| 
B----------------------------------------------------------------------------------------------| 
G-------------10-10-10-5--5-5-5-5-5-5-5-5-5-5-5-5-10-10-10-9--9-9-9-9-9-9-9-9-9-9-9-9-12-12-0--| 
D-2-2-2-2-2-2-10-10-10-5--5-5-5-5-5-5-5-5-5-5-5-5-10-10-10-9--9-9-9-9-9-9-9-9-9-9-9-9-12-12-0--| 
A-2-2-2-2-2-2-8--8--8--3--3-3-3-3-3-3-3-3-3-3-3-3-8--8--8--7--7-7-7-7-7-7-7-7-7-7-7-7-10-10-0--| 
E-0-0-0-0-0-0----------------------------------------------------------------------------------| 

e-----------------------------------------------------------------------------| 
B-----------------------------------------------------------------------------| 
G-5--5-5-5-5-5-5-5-5-5-5-5-5-7---------------------------------5-5-5----------| 
D-5--5-5-5-5-5-5-5-5-5-5-5-5-7-7-9-5--5-5-5-5-5-5-5-5-5-5-5-5--5-5-5-5--5-5---| 
A-3--3-3-3-3-3-3-3-3-3-3-3-3-5-7-9-5--5-5-5-5-5-5-5-5-5-5-5-5--3-3-3-5--5-5---| 
E------------------------------5-7-3--3-3-3-3-3-3-3-3-3-3-3-3--------3--3-3---| 

2nd Chorus 
e--------------------------------------------------------------------------------------------------| 
B---3-3---5---3----------------3-3-5----------------------3-3---5---3----------------5-------------| 
G-4-----4---4---2-2-2--------4-------4-0-2-5-5-5--------4-----4---4---2-2-2--------4---4-2-0-------| 
D---------------2-2-2-2--2-2---------------5-5-5-5--5-5---------------2-2-2-2--2-2-----------4-0-2-| 
A---------------0-0-0-2--2-2---------------3-3-3-5--5-5---------------0-0-0-2--2-2-----------------| 
E---------------------0--0-0---------------------3--3-3---------------------0--0-0-----------------| 

e-----------------------------------------------------------------------------------------------| 
B----------------3-3---5---3----------------3-3-5----------------------3-3---5---3--------------| 
G------2--4~---4-----4---4--------2--4~---4-------4-0-2------2--4~---4-----4---4-------2--4~----| 
D--2-5------------------------2-5------------------------2-5-----------------------2-5----------| 
A-----------------------------------------------------------------------------------------------| 
E-----------------------------------------------------------------------------------------------| 

e---------------------------------------------------------------------------------------| 
B---------------------------------------------------------------------------------------| 
G--------9-11b-9-11/12\11-9--9-9---------9-11b-9-11/12\11-9--9-11b-9-11/12\11-9--9-9----| 
D-7/9-12---------------------9-9--7/9-12-----------------------------------------9-9----| 
A----------------------------7-7-------------------------------------------------7-7----| 
E----------------------------0-0-------------------------------------------------0-0----| 

e---------------------------------| 
B---------------------------------| 
G-7/9"-7/9"-7/9"-7/9"-7/9"-7/9"---| 
D-7/9"-7/9"-7/9"-7/9"-7/9"-7/9"---| 
A-5/7"-5/7"-5/7"-5/7"-5/7"-5/7"---| 
E-0-0--0-0--0-0--0-0--0-0--0-0----| 

Solo 
e---------------------------------------------------------------------------------------------------| 
B---------------------------------------------------------------------------------------------------| 
G---------------------------------------------------------------------------------------------------| 
D-----7--/12~-12-12-11-11-9-9-7-7-7/12-12-12-11-11-9-9-7-7/14~-----7-/12-12-11-11-9-7h9p7\5h7p5\4h5p| 
A-----7------------------------------------------------------------7--------------------------------| 
E-0-3-5--------------------------------------------------------0-3-5--------------------------------| 

e-----------------------------------------------------------------------------------------------| 
B--------------------------------------------------------------------/15-12~-12-15-12-17-12-15~-| 
G-------------------5-/12~-12-11-12-11-9-9~-9-11-12-11-12-14-12-11-9----------------------------| 
D-4\2h4p2-----------5---------------------------------------------------------------------------| 
A---------0h4-5-----3---------------------------------------------------------------------------| 
E---------------0-3-----------------------------------------------------------------------------| 

e---------------------------------------------------------------------------------| 
B-12-17-12-------------------------------------------------------------17~~~~~----| 
G----------16p14p12h14~-----------12---------------------------/16~~~~------------| 
D------------------------12-14-12----14-12h14-12h14p12\7/14~----------------------| 
A---------------------------------------------------------------------------------| 
E---------------------------------------------------------------------------------| 

Neck Pickup Solo 
e-----------------------------------------------------------------------------------------15~-------| 
B---------------------------------------------------------------------------------------------------| 
G-----14~~12~~-------12----14^12-14-14-12-14-12~----------12-----14~~12~~-------12----14B^~~~~14-14-| 
D-3------------12h14----14-----------------------14p12h14----14-----------12h14----14---------------| 
A-3-------------------------------------------------------------------------------------------------| 
E-1-------------------------------------------------------------------------------------------------| 

e--------------------------------------------------------------------------------------| 
B--------------------------------------15-17------------------------17b~~--------------| 
G-12h14p12\9---14~~12~~-------12----16------14\12-14-12----------12-17b~~-16p14\12~~~--| 
D-----------------------12h14----14---------------------14h12p14-----------------------| 
A--------------------------------------------------------------------------------------| 
E--------------------------------------------------------------------------------------| 

3rd Verse 
e-------------------------------------------------------------------------------------------------| 
B-------------------------------------------------------------------------------------------------| 
G-9-9-9-9-9-9-9-9-9-9-9-9-12-12-12-9--9-9-9-9-9-9-9-9-9-9-9-9-12-12-12-8--8-8-8-8-8-8-8-8-8-8-8-8-| 
D-9-9-9-9-9-9-9-9-9-9-9-9-12-12-12-9--9-9-9-9-9-9-9-9-9-9-9-9-12-12-12-8--8-8-8-8-8-8-8-8-8-8-8-8-| 
A-7-7-7-7-7-7-7-7-7-7-7-7-10-10-10-7--7-7-7-7-7-7-7-7-7-7-7-7-10-10-10-6--6-6-6-6-6-6-6-6-6-6-6-6-| 
E-------------------------------------------------------------------------------------------------| 

e-------------------------------------------------------------------------------------------------| 
B-------------------------------------------------------------------------------------------------| 
G-12-12-12-9--9-9-9-9-9-9-9-9-9-9-9-9-12-12-12----------------------------12-12-12----------------| 
D-12-12-12-9--9-9-9-9-9-9-9-9-9-9-9-9-12-12-12-2--2-2-2-2-2-2-2-2-2-2-2-2-12-12-12-2--2-2-2-2-2-2-| 
A-10-10-10-7--7-7-7-7-7-7-7-7-7-7-7-7-10-10-10-2--2-2-2-2-2-2-2-2-2-2-2-2-10-10-10-2--2-2-2-2-2-2-| 
E----------------------------------------------0--0-0-0-0-0-0-0-0-0-0-0-0----------0--0-0-0-0-0-0-| 

e--------------------------------------------------------------------------------------------------| 
B--------------------------------------------------------------------------------------------------| 
G-------------10-10-10-5--5-5-5-5-5-5-5-5-5-5-5-5-10-10-10-9--9-9-9-9-9-9-9-9-9-9-9-9-12-12-0------| 
D-2-2-2-2-2-2-10-10-10-5--5-5-5-5-5-5-5-5-5-5-5-5-10-10-10-9--9-9-9-9-9-9-9-9-9-9-9-9-12-12-0-5-5-5| 
A-2-2-2-2-2-2-8--8--8--3--3-3-3-3-3-3-3-3-3-3-3-3-8--8--8--7--7-7-7-7-7-7-7-7-7-7-7-7-10-10-0-5-5-5| 
E-0-0-0-0-0-0---------------------------------------------------------------------------------3-3-3| 

3rd Chorus 
e--------------------------------------------------------------------------------------------------| 
B---3-3---5---3----------------3-3-5----------------------3-3---5---3----------------5-------------| 
G-4-----4---4---2-2-2--------4-------4-0-2-5-5-5--------4-----4---4---2-2-2--------4---4-2-0-------| 
D---------------2-2-2-2--2-2---------------5-5-5-5--5-5---------------2-2-2-2--2-2-----------4-0-2-| 
A---------------0-0-0-2--2-2---------------3-3-3-5--5-5---------------0-0-0-2--2-2-----------------| 
E---------------------0--0-0---------------------3--3-3---------------------0--0-0-----------------| 

e-----------------------------------------------------------------------------------------------| 
B----------------3-3---5---3----------------3-3-5----------------------3-3---5---3--------------| 
G------2--4~---4-----4---4--------2--4~---4-------4-0-2------2--4~---4-----4---4-------2--4~----| 
D--2-5------------------------2-5------------------------2-5-----------------------2-5----------| 
A-----------------------------------------------------------------------------------------------| 
E-----------------------------------------------------------------------------------------------| 

e---------------------------------------------------------------------------------------------------| 
B---------------------------------------------------------------------------------------------------| 
G--------9-11b-9-11/12\11-9--9-9---------9-11b-9-11/12\11-9--9-11b-9-11/12\11-9--9-11b-9-11/12\11-9-| 
D-7/9-12---------------------9-9--7/9-12------------------------------------------------------------| 
A----------------------------7-7--------------------------------------------------------------------| 
E----------------------------0-0--------------------------------------------------------------------| 

e------------| 
B------------| 
G-----9\\----| 
D-----9\\----| 
A-----7\\----| 
E-----0\\----| 
		  

See also:

tabs M2M - Wanna Be Where You Are tabs Kvelertak - Sultans Of Satan tabs Kvelertak - Nekrodamus tabs M2M - Don't tabs Kvelertak - Bruane Brenn tabs Kvelertak - Undertro
e-chords

Other versions:

tabs Kvelertak - Bruane Brenn
auto scroll beats size up size down change color hide chords drawings
tab show chords e-chords YouTube Clip e-chords hide all tabs e-chords go to top tab

share