Jonas Brothers

I Gotta Find You

Jonas Brothers

tabs Beginner beginner

by  ABELAMIN

save to print version add songbook text version e-mail correct tuner
chordsukulelecavacokeyboardtabbassdrumsharmonicaflute Guitar Pro
close
i-gotta-find-you-by-jonas-brothers

there is a video lesson for this song

chords

I Gotta Find You

	  		Artist: Jonas Brothers 
Song: I Gotta Find You 


ok this is the song that Shane(Joe Jonas) from Connect Three in Camp Rock 
plays for Mitchie(Demi Lovato) at the river... im pretty sure its close to 
100% correct... not sure on some parts, i'll let you know when. this is a 
great song that i cant get out of my head s i decided to make a tab for it 
hnope you like it... oh and by the way, demi lovato is freaking gorgeous! 
lol 

/ = Slide up 
p = pull off 
x = mute 
~ = let ring 

Intro & Verse: Play as Intro 1x and Verse 2x 
e|--------------x1----33-------------11--0~00---------11-3~33---------1~1x-3-33~--| 
B|--3/5-3p1-----x1--1~11-3/5-3p1-----11--1~11-3p1-----11-1~11-3/5-3p1-1~1x-3-33~--| 
G|--0~--0~--0~--x2--0~00-0~--0~--0~--22--2~22-0~--0~--22-0~00-0~--0~--2~2x-0-00~--| 
D|----------2h3-x3--2~22---------2h3-33--2~22-----2h3-33-2~22---------3~3x-0-00~--| 
A|------------------3~33-----------------0~00------------3~33---------3~3x-2-22~--| 
E|--------------------------------------------------------------------1~1x-3-33~--| 


Pre-Chorus: 
e|------3~33-----3~33-|-----3~33-----3~33--| 
B|------1~11-----1~11-|-----1~11-----3~33--| 
G|------0~00-----0~00-|-----2~22-----0~00--| 
D|--2-2-2~22-0-0-0~00-|-2-2-2~22-----0~00--| 
A|--3-3-3~33-2-2-2~22-|-0-0-0~00-2-2-2~22--| 
E|--------------------|----------3-3-3~33--| 

e|------3~33----------|-----3~33-----3~33--| 
B|------1~11-----3~33-|-----3~33-----3~33--| 
G|------0~00-2-2-2~22-|-----0~00-----0~00--| 
D|--2-2-2~22-0-0-0~00-|-----0~00-----0~00--| 
A|--3-3-3~33----------|-2-2-2~22-2-2-2~22--| 
E|--------------------|-3-3-3~33-3-3-3~33--| 


Chorus: 
e|--1-1-1~1100000-0~03-3-3~3333333-3-3--| 
B|--1-1-1~1111111-1~13-3-3~3333333-3-3--| 
G|--2-2-2~2200000-0~00-0-0~0000000-0-0--| 
D|--3-3-3~3322222-2~20-0-0~0000000-0-0--| Repeat 3x 
A|--3-3-3~3333333-3~32-2-2~2222222-2-2--| 
E|--1-1-1~11---------3-3-3~3333333-3-3--| 

4th time 
e|-------------------3~--| 
B|--3-3-3~3333333-3~33~--| 
G|--2-2-2~2222222-2~20~--| 
D|--0-0-0~0000000-0~00~--| 
A|-------------------2~--| 
E|-------------------3~--| 

After The Chorus 
e|--------------1----33-------------11--0~00---------11-3~33---------1~1x-3-33~--| 
B|--3/5-3p1-----1--1~11-3/5-3p1-----11--1~11-3p1-----11-1~11-3/5-3p1-1~1x-3-33~--| 
G|--0~--0~--0~--2--0~00-0~--0~--0~--22--2~22-0~--0~--22-0~00-0~--0~--2~2x-0-00~--| 
D|----------2h3-3--2~22---------2h3-33--2~22-----2h3-33-2~22---------3~3x-0-00~--| 
A|-----------------3~33-----------------0~00------------3~33---------3~3x-2-22~--| 
E|-------------------------------------------------------------------1~1x-3-33~--| 

Verse: Play 2x 


e|--------------x1----33-------------11--0~00---------11-3~33---------1~1x-3-33~--| 
B|--3/5-3p1-----x1--1~11-3/5-3p1-----11--1~11-3p1-----11-1~11-3/5-3p1-1~1x-3-33~--| 
G|--0~--0~--0~--x2--0~00-0~--0~--0~--22--2~22-0~--0~--22-0~00-0~--0~--2~2x-0-00~--| 
D|----------2h3-x3--2~22---------2h3-33--2~22-----2h3-33-2~22---------3~3x-0-00~--| 
A|------------------3~33-----------------0~00------------3~33---------3~3x-2-22~--| 
E|--------------------------------------------------------------------1~1x-3-33~--| 

Pre-Chorus: 
e|------3~33-----3~33-|-----3~33-----3~33--| 
B|------1~11-----1~11-|-----1~11-----3~33--| 
G|------0~00-----0~00-|-----2~22-----0~00--| 
D|--2-2-2~22-0-0-0~00-|-2-2-2~22-----0~00--| 
A|--3-3-3~33-2-2-2~22-|-0-0-0~00-2-2-2~22--| 
E|--------------------|----------3-3-3~33--| 

e|------3~33----------|-----3~33-----3~33--| 
B|------1~11-----3~33-|-----3~33-----3~33--| 
G|------0~00-2-2-2~22-|-----0~00-----0~00--| 
D|--2-2-2~22-0-0-0~00-|-----0~00-----0~00--| 
A|--3-3-3~33----------|-2-2-2~22-2-2-2~22--| 
E|--------------------|-3-3-3~33-3-3-3~33--| 


Chorus: 
e|--1-1-1~1100000-0~03-3-3~3333333-3-3--| 
B|--1-1-1~1111111-1~13-3-3~3333333-3-3--| 
G|--2-2-2~2200000-0~00-0-0~0000000-0-0--| 
D|--3-3-3~3322222-2~20-0-0~0000000-0-0--| Repeat 3x 
A|--3-3-3~3333333-3~32-2-2~2222222-2-2--| 
E|--1-1-1~11---------3-3-3~3333333-3-3--| 

4th time 
e|-------------------3-3-3~3333333-3-3--| 
B|--3-3-3-3333333-3~33-3-3~3333333-3-3--| 
G|--2-2-2~2222222-2~20-0-0~0000000-0-0--| 
D|--0-0-0~0000000-0~00-0-0~0000000-0-0--| 
A|-------------------2-2-2~2222222-2-2--| 
E|-------------------3-3-3~3333333-3-3--| 

Bridge: 
e|-----x----------x----x-1-11-1111--| 
B|--3-3x-3-33-3333x-3-3x-1-11-1111--| 
G|--0-0x-0-00-0000x-0-0x-2-22-2222--| 
D|--2-2x-0-00-0000x-2-2x-3-33-3333--| 
A|--0-0x-2-22-2222x-3-3x-3-33-3333--| 
E|-----x----------x----x-1-11-1111--| 

e|-----x----------x-3-3x-3-33-3333--| 
B|--3-3x-3-33-3333x-3-3x-3-33-3333--| 
G|--2-2x-2-22-2222x-0-0x-0-00-0000--| 
D|--0-0x-0-00-0000x-0-0x-0-00-0000--| 
A|-----x----------x-2-2x-2-22-2222--| 
E|-----x----------x-3-3x-3-33-3333--| 

then there is one small part where its a guitar and piano but i can hear 
the guitar part too much so i kinda pick in these cords 

e|--3--      --3--| 
B|--1--      --3--| 
G|--0-- then --0--| 
D|--2--      --0--| 
A|--3--      --2--| 
E|-----      --3--| 

READ NEXT PARAGRAPH FOR ENDING OF THE SONG!!!! 

then after he says "Ohhhhh..." when he says " I need to FIND you"... you 
strum the first cord on "FIND" then strum the next chord really quick when 
Joe says "YEAH!!!!" and palm mute a couple times then release slowly and 
progress into the chorus which you will play 2 times then it goes into the 
intro/verse thing in which you played at the very beginnig and you play 
that once and end on the "G" chord that you play once and let it ring out 


Alright thats it... man this took a long time to make so i better get some 
good reviews on this song... hope this is good enough for you... 

if there are any mistakes or things you would like me to add message me on 
myspace... www.myspace.com/cj_ljh_4ever, and let me know what i did wrong 
or what you would like me to add!!!! 

alright im out peace 
Cameron 

		  

auto scroll beats size up size down change color hide chords drawings
tab show chords e-chords YouTube Clip e-chords hide all tabs e-chords go to top tab

share