John Frusciante

Look On (solo) Tab

John Frusciante

Difficulty: ExpertExpert

by robepoiel

tuner correct add songbook print version text version save to e-mail
chordsukulelecavacokeyboardtabbassdrumsharmonicsflute Guitar Pro
close

there isn't a video lesson for this song

chords

Look On (solo)

(John Frusciante)

  		Solo: 
(2:42) 
e|---------------------------------------------------------------------------| 
B|------12-14-12-14~----14-12---------------------------------12-12----------| 
G|-S13----------------------------13-11-9-11-11-9-----11/13------------------| 
D|----------------------------------------------------11---------------------| 
A|---------------------------------------------------------------------------| 
E|---------------------------------------------------------------------------| 

e|---------------------------------------------------------------------------| 
B|-----12-12-----12-12--12-12-------14B-14B-14B-14BR-------------------------| 
G|-13---------13-----------------13------------------13-13--11---------------| 
D|---------------------------------------------------------------------------| 
A|---------------------------------------------------------------------------| 
E|---------------------------------------------------------------------------| 

e|---------------------------------------------------------------------------| 
B|-----12-14-12-14-12--------------------------12-----12-12------------------| 
G|-13--------------------13S11-9-11-9-11S13-------13---------13S11-9---------| 
D|---------------------------------------------------------------------------| 
A|---------------------------------------------------------------------------| 
E|---------------------------------------------------------------------------| 

e|---------------------------------------------------------------------------| 
B|---------------------------------------------------------------------------| 
G|-11-9------9~--9-8------------9-8------------------------------------------| 
D|-------11-------------11-9-11------11-9-9H11-9-----------------------------| 
A|-----------------------------------------------------11-9-7-7H9------------| 
E|-------------------------------------------------------------------7H9-----| 

e|---------------------------------------------------------------------------| 
B|---------------------------------------------------------------------------| 
G|---------------------------------------------------------------------------| 
D|----------9-9-----9-9--11-9------------------------------------------------| 
A|-7-9S11------11-------------11-9S7----6H7P6---4--0H2P0---------------------| 
E|----------------------------------------9----------7-------------0H2P0-----| 

e|---------------------------------------------------------------------------| 
B|---------------------------------------------------------------------------| 
G|---------------------------------------------------------------------------| 
D|-------------------------------------------------------------9-11-11-11----| 
A|--------------------------------2--2H4S7-6H7P6-S9-S11----------------------| 
E|-0H2P0-0H2P0-2H4P2--2H4---4------------------------------------------------| 

e|---------------------------------------------------------------------------| 
B|----------------------------------------12----12-14B-14B-14B-14------------| 
G|-------11B-11B-11B-11R---------13----13------------------------------------| 
D|-11~-----------------------11-11-------------------------------------------| 
A|---------------------------------------------------------------------------| 
E|---------------------------------------------------------------------------| 

e|-14B-12-14B-14B--14-12-14-12-14-14-12-14-14-12-14-14-11-12-----------------| 
B|---------------------------------------------------------------------------| 
G|---------------------------------------------------------------------------| 
D|---------------------------------------------------------------------------| 
A|---------------------------------------------------------------------------| 
E|---------------------------------------------------------------------------| 

e|-14-14B-14B-14-12-11H12P11-12-11--------------19B-19B-16-16----------------| 
B|----------------------------------------14-14~-----------------------------| 
G|---------------------------------------------------------------------------| 
D|---------------------------------------------------------------------------| 
A|---------------------------------------------------------------------------| 
E|---------------------------------------------------------------------------| 

e|-----16-19BRBR-16--------------------------19------------------------------| 
B|-19-------------------19-17-19-17-19--19B----19R-17-19-17------------------| 
G|---------------------------------------------------------------------------| 
D|---------------------------------------------------------------------------| 
A|---------------------------------------------------------------------------| 
E|---------------------------------------------------------------------------| 

e|-------19----------19--------19---------19---------------------------------| 
B|-19B-----19R---------19RB-----19RB-----19RB--19-17-16-17-17----------------| 
G|---------------------------------------------------------------------------| 
D|---------------------------------------------------------------------------| 
A|---------------------------------------------------------------------------| 
E|---------------------------------------------------------------------------| 

e|-----------------14B-12----------------------------------------------------| 
B|-17P16-----14----------14-14-14P12------14B-14B-14B-14B-14-14--------------| 
G|---------16------------------------------13--------------------------------| 
D|---------------------------------------------------------------------------| 
A|---------------------------------------------------------------------------| 
E|---------------------------------------------------------------------------| 

e|---------------------------------------------------------------------------| 
B|-12-----------------------------12-12-12P9-9-9--10-9-10-9------------------| 
G|-----13-11-9--9-11-9-11S13---------------------------------9--11B----------| 
D|---------------------------------------------------------------------------| 
A|---------------------------------------------------------------------------| 
E|---------------------------------------------------------------------------| 

e|---------------------------------------------------------------------------| 
B|---------------------------------------------------------------------------| 
G|-8-9--11B-11B-11B--9-8H9---------------------------------------------------| 
D|--------------------------------11-11-----------------------9-11-----------| 
A|----------------------------------------9S7-9------7-9S11------------------| 
E|------------------------------------------------7H9------------------------| 

e|---------------------------------------14B---------------------------------| 
B|---------------------------------12B---------------------------------------| 
G|---------------------------11B---------------------------------------------| 
D|-11B-9H11-11-11--11B-----------------------11-11-11-11-11-11-11-etc--------| 
A|---------------------------------------------------------------------------| 
E|---------------------------------------------------------------------------| 

(5:08) 

e|-21~-----------------------------------------------------------------------| 
B|---------------------------------------------------------------------------| 
G|------------------16H18~---------16H18-18B-----------16H18~----------------| 
D|---------------------------------------------------------------------------| 
A|---------------------------------------------------------------------------| 
E|---------------------------------------------------------------------------| 

e|---------------------------------------------------------------------------| 
B|---------------------------------------------------------------------------| 
G|--16H18--------18B------feedback etc---------------------------------------| 
D|---------------------------------------------------------------------------| 
A|---------------------------------------------------------------------------| 
E|---------------------------------------------------------------------------| 
	  

auto scroll beats size up size down change color hide chords drawings
tab show chords e-chords YouTube Clip e-chords hide all tabs e-chords go to top tab

share with facebook

Search Paypal