John Frusciante

I Will Always Be Beat Down Tab

John Frusciante

Difficulty: ExpertExpert

tuner correct add songbook print version text version save to e-mail
chordsukulelecavacokeyboardtabbassdrumsharmonicsflute Guitar Pro
close

there isn't a video lesson for this song

chords

I Will Always Be Beat Down

  		 
Versão 1 : 
 
intro/versos: 
                                                           
E||-----------5--------------|-----------3---------------| 
B||--------5--------------5--|--------3------------------| 
G||-----5--------------4-----|-----4------------------7--| 
D||--7--------------5--------|--5------------------7-----| 
A||--------------7-----------|------------------9--------| 
E||--------------------------|--------------10-----------| 
 
 
refrão: 
                                                                
E||------------10-----------------|--------------12-----------7--| 
B||--------10-----------------10--|----------13------------8-----| 
G||-----9-----------------10------|------12-------------7--------| 
D||--7----------------10----------|--10--------------5-----------| 
A||----------------8--------------|------------------------------| 
E||-------------------------------|------------------------------| 
 
 
 
A música terminada assim fica bem melhor:                                                       
E||-----------5--------------|-----------3--------------| 
B||--------5--------------5--|--------3-----3-----3-----| 
G||-----5--------------4-----|-----4--------2-----2-----| 
D||--7--------------5--------|--5-----------4-----4-----| 
A||--------------7-----------|--------------5-----5-----| 
E||--------------------------|--------------------------| 
 
 
                                                     
-----------5--------------|-----------3------------| 
--------5--------------5--|--------3-----3---------| 
-----5--------------4-----|-----4--------2---------| 
--7--------------5--------|--5-----------4---------| 
--------------7-----------|--------------5---------| 
--------------------------|------------------------| 
                                                       x2 
                                                       
final: 
                      
--5----------------|| 
--5----------------|| 
--5----------------|| 
--7----------------|| 
-------------------|| 
-------------------|| 
 
 
I Will Always Be Beat Down  
 
I am hopeful for you 
Go from to a few 
Train the horses all right 
Cut the air off with good knife 
All the pastures of time 
Move around and combine 
Break the lock, stay seen child 
Break the forces which collide 
You are this. 
I will always be beat down 
I will always be down 
 
 
_______________________________________________________ 
Contribuição: rodrigo aquino marcellino([email protected]) 

	  

auto scroll beats size up size down change color hide chords drawings
tab show chords e-chords YouTube Clip e-chords hide all tabs e-chords go to top tab

share with facebook

Search Paypal