Jay-z feat & Link Park

home > Jay-z feat & Link ...

Numb-encore Tab

Jay-z feat & Link Park

Difficulty: BeginnerBeginner

by arilopes%5F7

tuner correct add songbook print version text version save to e-mail
chordsukulelecavacokeyboardtabbassdrumsharmonicsflute Guitar Pro
chords

Numb-encore

  		e|-0-3--0-5----8--7-----------------| 
b|----------------------------------| 
g|----------------------------------| 
d|----------------------------------| 
a|----------------------------------| 
e|----------------------------------| 
 
e|-0-3--0-5----8--7---3-------------| 
b|----------------------------------| 
g|----------------------------------| 
d|----------------------------------| 
a|----------------------------------| 
e|----------------------------------| 
 
e|-0-3--0-5----8--7-----------------| 
b|----------------------------------| 
g|----------------------------------| 
d|----------------------------------| 
a|----------------------------------| 
e|----------------------------------| 
 
e|-0-3--0-5----8--7---3-------------| 
b|----------------------------------| 
g|----------------------------------| 
d|----------------------------------| 
a|----------------------------------| 
e|----------------------------------| 
 
e|-5-5-5-3-0-3-5-5-3----------------| 
b|----------------------------------| 
g|----------------------------------| 
d|----------------------------------| 
a|----------------------------------| 
e|----------------------------------| 

	  

Search Paypal
auto scroll beats size up size down change color hide chords drawings
tab show chords e-chords YouTube Clip e-chords hide all tabs e-chords go to top tab