P.Diddy

I'll be missing you

P.Diddy

tabs Expert expert

by  CHRISTIAN

save to print version add songbook text version e-mail correct tuner
chordsukulelecavacokeyboardtabbassdrumsharmonicaflute Guitar Pro
close

there isn't a video lesson for this song

chords

I'll be missing you

	  		e|---------------------------------------------------------| 
B|------------0-----------------------0--------------------| 
G|------2--------2-----2--------2--------2-----2-----------| 
D|---0-----0--------0--------0-----0--------0--------------| 
A|---------------------------------------------------------| 
E|-3----------------------3--------------------------------| 
 
 
e|---------------------------------------------------------| 
B|---------------------------------------------------------| 
G|-------------0-----------------------0-------------------| 
D|-------4--------4-----4--------4--------4-----4----------| 
A|----2-----2--------2--------2-----2--------2-------------| 
E|-0-----------------------0-------------------------------| 
 
 
e|---------------------------------------------------------| 
B|-------------3-----------------------5-------------------| 
G|-------5--------5-----5--------7--------7-----7----------| 
D|----5-----5--------5--------7-----7--------7-------------| 
A|-3-----------------------5-------------------------------| 
E|---------------------------------------------------------| 
 
 
e|---------------------------------------------------------| 
B|------------0-----------------------0--------------------| 
G|------2--------2-----2--------2--------2-----2-----------| 
D|---0-----0--------0--------0-----0--------0--------------| 
A|---------------------------------------------------------| 
E|-3----------------------3--------------------------------| 
 
 
Puff Daddy 
I'll be missing you 
 
 
e|---------------------------------------------------------| 
B|------------0-----------------------0--------------------| 
G|------2--------2-----2--------2--------2-----2-----------| 
D|---0-----0--------0--------0-----0--------0--------------| 
A|---------------------------------------------------------| 
E|-3----------------------3--------------------------------| 
 
 
e|---------------------------------------------------------| 
B|---------------------------------------------------------| 
G|-------------0-----------------------0-------------------| 
D|-------4--------4-----4--------4--------4-----4----------| 
A|----2-----2--------2--------2-----2--------2-------------| 
E|-0-----------------------0-------------------------------| 
 
 
e|---------------------------------------------------------| 
B|-------------3-----------------------5-------------------| 
G|-------5--------5-----5--------7--------7-----7----------| 
D|----5-----5--------5--------7-----7--------7-------------| 
A|-3-----------------------5-------------------------------| 
E|---------------------------------------------------------| 
 
 
e|---------------------------------------------------------| 
B|------------0-----------------------0--------------------| 
G|------2--------2-----2--------2--------2-----2-----------| 
D|---0-----0--------0--------0-----0--------0--------------| 
A|---------------------------------------------------------| 
E|-3----------------------3--------------------------------| 
		  

See also:

tabs Nelly - Ride Wit Me tabs Chris Brown - Take You Down tabs Akon - Lonely (acoustic) tabs Frankie J. - More Than Words (Intro) tabs Jay-z feat & Link Park - Numb-encore tabs T-Pain - I'm N Luv Wit A Stripper
e-chords

Other versions:

tabs P.Diddy - I'll be missing you
auto scroll beats size up size down change color hide chords drawings
tab show chords e-chords YouTube Clip e-chords hide all tabs e-chords go to top tab

share