Papa Roach

home > Papa Roach

Broken home Tab

Papa Roach

Difficulty: nolevelnolevel

tuner correct add songbook print version text version save to e-mail
chordsukulelecavacokeyboardtabbassdrummharmonicsflute Guitar Pro
chords

Broken home

  		Riff1 (Intro - Dist. guitar with echo or palm mute)
        * * *       * * *       * * *       * * *
e--------------------------------------------------|
B--------------------------------------------------|
G-----------------1-1-1-1-----2-2-2-2-----1-1-1-1--|
D--------------------------------------------------|
A--x--4-4-4-4--x--4-4-4-4--x--4-4-4-4--x--4-4-4-4--|
E--x--2-2-2-2--x--2-2-2-2--x--2-2-2-2--x--2-2-2-2--|
      F#5         F#sus2      F#m         F#sus2
Intro (Riff1)
F#5   F#sus2   F#m   F#sus2 
                              Broken home_____
F#5   F#sus2   F#m   F#sus2  (bass + drum enter)
___                           all alo____o_o_one__
F#5   F#sus2   F#m   F#sus2
___                           Broken home_____
F#5   F#sus2   F#m   F#sus2  (uptempo drum + bass)
___                           all alo____o_o_one__
F#5   F#sus2   F#m!  (echo)
Riff2 (Verse)
e--------------------------------|
B--------------------------------|
G-------4/6--6-6/7---7-7/9--x-9--|
D--4-4----------------------x-9--|
A--4-4--2/4--4-4/5---5-5/7--x-7--|
E--2-2---------------------------|
   F#5 B5 C#5    D5      E5
Verse1 (Riff2)
F#5 b5 c#5    d5      e5
I can't seem to fight these fee_lings_
F#5 b5 c#5    d5      e5
I'm caught in the middle of__ this__
F#5 b5 c#5    d5      e5
And my wounds are not hea_ling_
F#5 b5 c#5    d5      e5
I'm stuck_ in between my parents_
F#5 b5 c#5    d5      e5
I wish I had someone to talk__ to__
F#5 b5 c#5    d5      e5
Someone I could_ confide__ in
F#5 b5 c#5    d5      e5
I just want to know_ the truth__
F#5 b5 c#5    d5      e5
I just want to know_ the_
Riff3 (Chorus)
e-------------------------------------------------------------------|
B-------------------------------------------------------------------|
G---------------------------------7-7-7-7--6-6-6-6-4-4-4-4-2-2-2-2--|
D--4-4---x-4-4--x-4-4---x-4-4-----x-x-x-x--x-x-x-x-x-x-x-x-x-x-x-x--|
A--4-4---x-4-4--x-4-4---x-4-4-----5-5-5-5--4-4-4-4-2-2-2-2-0-0-0-0--|
E--2-2---x-2-2--x-2-2---x-2-2---------------------------------------|
   F#5                            d5       c#5     b5      a5 
Chorus1 (Riff3)
F#5 //  //  //  //    d5      c#5   b5      a5
TRUTH_______!         Want___ to___ know___ the___
F#5 //  //  //  //    d5      c#5   b5      a5
truth_______                                   Broken
F#5   F#sus2   F#m   F#sus2 
home________                all_
F#5   F#sus2   F#m   F#sus2 
alo____o_o_one__
Verse2 (Riff2)
F#5 b5 c#5    d5      e5
I know my mother loves me_
F#5 b5 c#5    d5      e5
But does my father even care_?
F#5 b5 c#5    d5      e5
If I'm sad or angry_
F#5 b5 c#5    d5      e5
You_ were never ever there
F#5 b5 c#5    d5      e5
When I needed you__
F#5 b5 c#5    d5      e5
I hope you regret what you did_
F#5 b5 c#5    d5      e5
I think I know the truth_
F#5 b5 c#5    d5      e5
Your_ father_ did_ the_ same_ to_
Chorus2 (Riff3)
F#5 //  //  //  //    d5     c#5    b5      a5
YOU_______!           Did___ the___ same___ to___
F#5 //  //  //  //    d5     c#5    b5      a5
you_______!
F#5                         d5     c#5    b5      a5
   I'm crying day and night now___        What is wrong with
F#5                         d5     c#5    b5      a5
me____?      I cannot fight now___    I feel like a_ weak_
F#5                         d5     c#5    b5      a5
link_  Crying day and night now___        What is wrong with
F#5                         d5     c#5    b5      a5
me____?      I cannot fight now___    I feel like a_ weak_
Riff4 (Bridge) 'weak link'
e-------------------|
B-------------------|
G-------------------|
D--4-4----2-2--4-4--|
A--4-4----2-2--4-4--|
E--2-2----0-0--2-2--|
   F#5    E5   F#5
F#5 //  //  E5 //  F#5  //
LINK__!
(Push it back in-inside)
F#5 //  E5 //  F#5  //
    A_ WEAK_ LINK__
(Push it back in-inside)
F#5 //  E5 //  F#5  //
(Push it back in-inside)
F#5 //  E5 //  F#5  // (echo)
(Push it back in-inside)                       Broken
F#5   F#sus2   F#m   F#sus2 
home________                all_
F#5   F#sus2   F#m   F#sus2 
alo____o_o_one__
F#5   F#sus2   F#m   F#sus2 
It feels bad to be alone_    Crying by yourself living in a broken home 
F#5   F#sus2   F#m   F#sus2 
How could I tell it?  So all y'all could feel it 
Depression strikes hard just like my old earth would tell it 
F#5  x// / x// /  x// /  x// /
To me, her son, she told me I'm the one
Pain bottled up, 'bout to blow like a gun 
F#5  x// / x// /  x// /  x// /
Stories that I tell    Are nonfiction 
And you can't take it back cuz it's already done
nc
Riff5 (Outro - Heavy riff)
e-----------------------------------|
B-----------------------------------|
G----------6-6-6-6-7-7-7-7-9-9-9-9--|
D--4-4-4-4-6-6-6-6-7-7-7-7-9-9-9-9--|
A--4-4-4-4-4-4-4-4-5-5-5-5-7-7-7-7--|
E--2-2-2-2-4-4-4-4-5-5-5-5-7-7-7-7--|
   F#5     C#5/G#  D5/A     E5/B
Outro (Riff5)
F#5   C#5/G#   D5/A   E5/B
                   BROKEN
F#5   C#5/G#   D5/A   E5/B
HOME___________________!
F#5   C#5/G#   D5/A   E5/B
                   BROKEN
F#5   C#5/G#   D5/A   E5/B
HOOOOME________________!
F#5   C#5/G#   D5/A   E5/B
Can't_ seem_ to_ fight__ these_ fee_lings__ 
F#5   C#5/G#   D5/A   E5/B
Caught_ in_ the_ middle_ of__ this_ 
F#5   C#5/G#   D5/A   E5/B
My_ wounds_ are_ not_ healing_ 
F#5   C#5/G#   D/A   E5/B
Stuck_ in_ between_ my_ pa_rents_
F#5   C#/G#   D/A   E/B
                   BROKEN
F#5   C#/G#   D/A   E/B
HOME___________________!
F#5   C#5/G#   D5/A   E5/B
                   BROKEN
F#5   C#5/G#   D5/A   E5/B
HOOOOME________________!
F#5 ///// ///// ///// /////  (Fast drums)
F#5 /  (echo)

	  

Full key step upFull key step up
Half key step upHalf key step up
Half key step downHalf key step down
Full key step downFull key step down
Search Paypal
auto scroll beats size up size down change color hide chords drawings
tab show chords e-chords YouTube Clip e-chords hide all tabs e-chords go to top tab