Hinos Avulsos Ccb

home > Hinos Avulsos Ccb

Reunidos Nos Estamos 464 Solo/tab Tab

Hinos Avulsos Ccb

Difficulty: nolevelnolevel

by tarikike

tuner correct add songbook print version text version save to e-mail
chordsukulelecavacokeyboardtabbassdrumsharmonicsflute Guitar Pro
chords

Reunidos Nos Estamos 464 Solo/tab

  		E|-----------------------------------------------------| 
A|-----------------------------------------------------| 
D|----3--1--1---------3---3-------------------0---3--1-| 
G|-0------------0--3---------0----3--------3-----------| 
B|-------------------------------------1---------------| 
E|-----------------------------------------------------| 


2 parte 
 
E|-----------------------------------------------------| 
A|-----------------------------------------------------| 
D|----3--1--1---------3---3-------------------0---3--1-| 
G|-0------------0--3---------0----3--------3-----------| 
B|-------------------------------------1---------------| 
E|-----------------------------------------------------| 


3 parte 
 
E|-----------------------------------------------------| 
A|-----------------------------------------------------| 
D|-----------------------------------------------------| 
G|-3-----------------3-----3--0--3--------------3------| 
B|----1--3--4--3--1-----1-----------1--3--4--1-----4---| 
E|-----------------------------------------------------| 
 

4 parte 
 
E|-----------------------------------------------------| 
A|-----------------------------------------------------| 
D|----3--1--1---------3---3-------------------0---3--1-| 
G|-0------------0--3---------0----3--------3-----------| 
B|-------------------------------------1---------------| 
E|-----------------------------------------------------| 


5 parte 
 
E|-----------------------------------------------------| 
A|-----------------------------------------------------| 
D|----3--1--1---------3---3-------------------0---3--1-| 
G|-0------------0--3---------0----3--------3-----------| 
B|-------------------------------------1---------------| 
E|-----------------------------------------------------| 


6 parte 
 
E|-----------------------------------------------------| 
A|-----------------------------------------------------| 
D|----3--1--1---------3---3-------------------0---3--1-| 
G|-0------------0--3---------0----3--------3-----------| 
B|-------------------------------------1---------------| 
E|-----------------------------------------------------| 


7 parte 
 
E|-----------------------------------------------------| 
A|-----------------------------------------------------| 
D|-----------------------------------------------------| 
G|-3-----------------3-----3--0--3--------------3------| 
B|----1--3--4--3--1-----1-----------1--3--4--1-----4---| 
E|-----------------------------------------------------| 
 

8 parte 
 
E|-----------------------------------------------------| 
A|-----------------------------------------------------| 
D|----3--1--1---------3---3-------------------0---3--1-| 
G|-0------------0--3---------0----3--------3-----------| 
B|-------------------------------------1---------------| 
E|-----------------------------------------------------| 

9 parte 
 
E|-----------------------------------------------------| 
A|-----------------------------------------------------| 
D|----3--1--1---------3---3-------------------0---3--1-| 
G|-0------------0--3---------0----3--------3-----------| 
B|-------------------------------------1---------------| 
E|-----------------------------------------------------| 


10 parte 
 
E|-----------------------------------------------------| 
A|-----------------------------------------------------| 
D|----3--1--1---------3---3-------------------0---3--1-| 
G|-0------------0--3---------0----3--------3-----------| 
B|-------------------------------------1---------------| 
E|-----------------------------------------------------| 


11 parte 
 
E|-----------------------------------------------------| 
A|-----------------------------------------------------| 
D|-----------------------------------------------------| 
G|-3-----------------3-----3--0--3--------------3------| 
B|----1--3--4--3--1-----1-----------1--3--4--1-----4---| 
E|-----------------------------------------------------| 
 

12 parte 
 
E|-----------------------------------------------------| 
A|-----------------------------------------------------| 
D|----3--1--1---------3---3-------------------0---3--1-| 
G|-0------------0--3---------0----3--------3-----------| 
B|-------------------------------------1---------------| 
E|-----------------------------------------------------| 
	  

Search Paypal
auto scroll beats size up size down change color hide chords drawings
tab show chords e-chords YouTube Clip e-chords hide all tabs e-chords go to top tab