Harpa Cristã

home > Harpa Cristã

Oração Pela Pátria Tab

Harpa Cristã

Difficulty: nolevelnolevel

by gustsilva

tuner correct add songbook print version text version save to e-mail
chordsukulelecavacokeyboardtabbassdrumsharmonicsflute Guitar Pro
chords

Oração Pela Pátria

  		 
E|-----------------|---------4---6-|-------------------|----------------| 
B|-------------4---|-----4---------|-9---8-------------|---------8------| 
G|-------------5-6-|-5---5---5---5-|-6---6-------10-8--|-0---8-------10-| 
D|-------------6-8-|-6-------------|-----8-------11-10-|-11--10--11--11-| 
A|---------------6-|-6---6---6---6-|-6---6-------10-11-|-13--11--13--10-| 
E|-------------4-4-|-4---4---4---4-|-6-----------11-11-|-11--11--11--11-| 
 

 
E|-----------------|---------4---8-|-6-----------6-6-|-6-------------| 
B|-4-----------4---|-----4-------4-|-----6-----------|-----9---8---6-| 
G|-5-----------5-6-|-5---5---5-----|-6---6-------6-8-|-7---7---7---7-| 
D|-6-----------6-8-|-6-----------4-|-----6-----------|---------8---6-| 
A|---------------6-|-6---6---6-----|-8-----------8-8-|-8---8---------| 
E|-4-----------4-4-|-4---4---4---4-|-9---9-------9-8-|-6---6---6---6-| 
 

 
E|-6---------------|---------4---6-|-6-----------------|----------------| 
B|-------------4---|-----4---------|-----8-------------|---------8------| 
G|-6-----------5-6-|-5---5---5---5-|-6---6-------10-8--|-0---8-------10-| 
D|-5-----------6-8-|-6-------------|-----8-------11-10-|-11--10--11--11-| 
A|-6-------------6-|-6---6---6---6-|-6---6-------10-11-|-13--11--13--10-| 
E|-------------4-4-|-4---4---4---4-|-6-----------11-11-|-11--11--11--11-| 
 

 
E|-----------------|---------4---8-|-6-----------------|-----8---8---6-| 
B|-4-----------4---|-----4-------4-|-----6-------8-----|---------------| 
G|-5-----------5-6-|-5---5---5-----|-6---6----------10-|-8---8---7---6-| 
D|-6-----------6-8-|-6-------6---4-|-----6-------9--9--|-10----------5-| 
A|---------------6-|-6---6---------|-8-----------8--10-|-11--11--8---6-| 
E|-4-----------4-4-|-4---4---4---4-|-9---9-------10-10-|-11--11--6-----| 
 

 
E|-4-----------4-6-|-----9-------------|-----8-------8-9-|-11--11--9---8-| 
B|-----------------|-8---8-------------|-4---4-------4---|-------------4-| 
G|-5-----------5-5-|-6-----------10-12-|-5-------------8-|-8---8---8-----| 
D|-----------------|-----8-------11-11-|-6---6-------6-6-|---------5---6-| 
A|-6-----------6-6-|-6-----------10-13-|-----------------|-11--11--------| 
E|-4-----------4-4-|-6---11------11-11-|-4---4-------4-6-|-8---8---6---4-| 
 

 
E|-------------6-8-|-9---9---8---6-|-4---11------9-8-|-6---9---8---6-| 
B|-6-----------6-6-|-6---6---------|-1-----------6---|-----6---------| 
G|-6---------------|---------8---6-|-1-------------8-|-6-------8---6-| 
D|-6-------------7-|-8---8---------|---4-13------8---|-----6---6---5-| 
A|-------------8---|---------8---8-|-----12--------8-|-8-------6---6-| 
E|-9-----------9-8-|-6---6---8---9-|-----13------6-8-|-9---6---------| 
 

 
E|-4------------| 
B|--------------| 
G|-5------------| 
D|--------------| 
A|-6------------| 
E|-4------------| 
	  

Search Paypal
auto scroll beats size up size down change color hide chords drawings
tab show chords e-chords YouTube Clip e-chords hide all tabs e-chords go to top tab