Gustavo Santaolalla

home > Gustavo Santaolall...

Home Tab

Gustavo Santaolalla

Difficulty: nolevelnolevel

by abelamin

tuner correct add songbook print version text version save to e-mail
chordsukulelecavacokeyboardtabbassdrumsharmonicsflute Guitar Pro
chords

Home

  		

Disclaimer: When I refer to a bar, I mean the tablature layout thing. 

e|------------------------------------------------------------------| 
B|--------------------3-----5/-----7\-----5-----3-------------------| 
G|--------4/-5\-4-----------------------------------------4---------| 
D|----4-------------------------------------------------------------| 
A|------------------------------------------------------------------| 
E|------------------------------------------------------------------| 

e|---------------------------------------------------------------| 
B|------3-----5/-----7\-----5-----3------------------------------| 
G|---------------------------------------4-----------------------| 
D|---------------------------------------------------------------| 
A|---------------------------------------------------------------| 
E|---------------------------------------------------------------| 

REPEAT FIRST TWO BARS 

e|---------------------------------------------------------------| 
B|---------------------------------------------------------------| 
G|---------------4---------------3-------------------------------| 
D|------4--------------------------------------------------------| 
A|---------------------------------------------------------------| 
E|---------------------------------------------------------------| 

e|---------------------------------------------------------------| 
B|----------3----------------------------------------------------| 
G|--------4----------------2------------1------------------------| 
D|------4--------------------------------------------------------| 
A|---------------------------------------------------------------| 
E|---------------------------------------------------------------| 

e|---0------0----3----2/----7----0---0----3----2-----0-------------| 
B ---1---------------------------1-------------------0-------------| 
G |--2---------------------------2-------------------0-------------| 
D|---2---------------------------2-------------------2-------------| 
A|---0---------------------------0-------------------2-------------| 
E|---0---------------------------0-------------------0-------------| 

e|--0----0----3----2/----7----5\----2--------------------------------| 
B|--1----------------------------------------------------------------| 
G|--2----------------------------------------------------------------| 
D|--2----------------------------------------------------------------| 
A|--0----------------------------------------------------------------| 
E|--0----------------------------------------------------------------| 



| /  slide up 
| \  slide down 
| h  hammer-on 
| p  pull-off 
| ~  vibrato 
| +  harmonic 
| x  Mute note 
	  

Search Paypal
auto scroll beats size up size down change color hide chords drawings
tab show chords e-chords YouTube Clip e-chords hide all tabs e-chords go to top tab