The Walking Dead

home > The Walking Dead

Theme Song Tab

The Walking Dead

Difficulty: ExpertExpert

by Acelot

tuner correct add songbook print version text version save to e-mail
chordsukulelecavacokeyboardtabbassdrumsharmonicsflute Guitar Pro
chords

Theme Song

  		

e|----------------------------------------------------|    
B|--------10h11p10----------10h11p10----------10h11---|   
G|----------------------------------------------------|   
D|-----12----------12----12----------12----12---------|   
A|--10----------------10----------------10------------|   
E|----------------------------------------------------| (3x)  


e|-------------------------------------------------------------------|    
B|------6h7p6-------6h7p6-------6h7------6h7p6-------6h7p6-------6h7-|   
G|-------------------------------------------------------------------|   
D|----8-------8---8-------8---8--------8-------8---8-------8---6-----|   
A|--6-----------6-----------6--------6-----------6-----------6-------|   
E|-------------------------------------------------------------------| (2x)  


e|-------------------------------------------------------------------|   
B|------3h4p3-------3h4p3-------3h4------3h4p3-------3h4p3-------3h4-|   
G|-------------------------------------------------------------------|   
D|----5-------5---5-------5---5--------5-------5---5-------5---3-----|   
A|--3-----------3-----------3--------3-----------3-----------3-------|   
E|-------------------------------------------------------------------| (2x)   


e|----------------------------------------------------|    
B|--------10h11p10----------10h11p10----------10h11---|   
G|----------------------------------------------------|   
D|-----12----------12----12----------12----12---------|   
A|--10----------------10----------------10------------|   
E|----------------------------------------------------| (5x)  


	  

Search Paypal
auto scroll beats size up size down change color hide chords drawings
tab show chords e-chords YouTube Clip e-chords hide all tabs e-chords go to top tab