Titanic

Rose And Jack

Titanic

tabs Expert expert

by  JESSGOMES

save to print version add songbook text version e-mail correct tuner
chordsukulelecavacokeyboardtabbassdrumsharmonicaflute Guitar Pro
close

there isn't a video lesson for this song

chords

Rose And Jack

	  		E|-------|-0-----------------3----0---3-|-------| 
B|-1---3-|-------3---1----3-------------|---3---| 
G|-------|------------------------------|-------| 
D|-------|------------------------------|-------| 
A|-------|-0----------------------------|-------| 
E|-------|----------------3-------------|---3---| 

E|--------------------------------------------| 
B|-1--------1--------1--------1-----0---------| 
G|----0--------0--------0--------0-----0------| 
D|-------2--------2--------2--------------0---| 
A|-3--------------------------3-----3---------| 
E|--------------------------------------------| 

E|---------------|----------------0--------------| 
B|-1--------1----|-0--------1--------3-----------| 
G|----0--------0-|----0--------0--------0-----0--| 
D|-------0-------|-------0-----------------0-----| 
A|----------3----|-------------------------------| 
E|---------------|-3-----------------3-----------| 

E|------------------------|------------------------| 
B|-1--------1--------1----|-0--------1--------3----| 
G|----0--------0--------0-|----0--------0--------0-| 
D|-------2--------2-------|-------0--------0-------| 
A|-3-----------------3----|------------------------| 
E|------------------------|-3-----------------3----| 

E|------|---------------|--------------| 
B|------|---------------|--------------| 
G|-0----|----0----------|----------0---| 
D|------|-3--------3----|-------0------| 
A|----3-|-------------3-|----2---------| 
E|-1----|---------------|-3------------| 
		  

See also:

tabs Giorgio Moroder - Theme from midnight express tabs Gustavo Santaolalla - The Choice tabs Kate Bush - Wuthering heights/ solo tabs School of Rock - Long Way To The Top Solo tabs The Rocky Horror Picture Show - Super Heroes tabs The Walking Dead - Theme Song
e-chords

Other versions:

tabs Titanic - Rose And Jack
auto scroll beats size up size down change color hide chords drawings
tab show chords e-chords YouTube Clip e-chords hide all tabs e-chords go to top tab

share