Guns N' Roses

home > Guns N' Roses

You Could Be Mine (ver.2) Tab

Guns N' Roses

Difficulty: IntermediateIntermediate

by Jonh+Petrucci

tuner correct add songbook print version text version save to e-mail
chordsukulelecavacokeyboardtabbassdrumsharmonicsflute Guitar Pro
chords

You Could Be Mine (ver.2)

  		
 
 
 
Words and Music by Slash, Duff McKagan & W. Axl Rose 
 
F#5 
2 4 x x x x 
A5 
x 0 2 x x x 
B5 
x 2 4 x x x 
G5 
3 x 0 0 x x 
A 
x 0 2 2 2 x 
D 
x x 0 2 3 2 
G 
3 5 5 4 x x 
D5 
x x 0 2 3 x 
B 
x 2 4 4 4 x 
C# 
x 4 6 6 6 x 
DV 
x 5 7 7 7 x 
 
Gtr I (Eb Ab Db Gb Bb Eb) - 'Izzy - Rhythm w/dist' 
Gtr II (Eb Ab Db Gb Bb Eb) - 'Slash - Rhythm/Lead w/dist' 
Gtr III (Eb Ab Db Gb Bb Eb) - 'Slash - Lead w/dist' 
Gtr IV (Eb Ab Db Gb Bb Eb) - 'Lead w/dist' 
 
Intro 
  Q=152 
 4/4 
  Gtr I 
    PM--------------------------------------------------------------------- 
    S    S    S    S    S    S    S    S   S   S   S   S   S   S   S   S 
|-------------------------------------------------------------------------| 
|-------------------------------------------------------------------------| 
|-------------------------------------------------------------------------| 
|-------------------------------------------------------------------------| 
|-------------------------------------------------------------------------| 
|-<12>-<12>-<12>-<12>-<12>-<12>-<12>-<12>-<9>-<9>-<9>-<9>-<9>-<9>-<7>-<7>-| 
 
 
                                                                                 Gtr II 
 -------------------------------------------------------------| 
   S   S   S   S   S   S   S   S   S   S   S   S   S   S   S   S    H    H       Q   H. 
|-----------------------------------------------------------------|------------|----14----| 
|-----------------------------------------------------------------|------------|----14----| 
|-----------------------------------------------------------------|------------|----14----| 
|-----------------------------------------------------------------|------x/----|----------| 
|-----------------------------------------------------------------|------x/----|----------| 
|-<7>-<7>-<7>-<7>-<7>-<7>-<7>-<7>-<5>-<5>-<4>-<4>-<3>-<3>-<3>-<3>-|------------|----------| 
 
 
  Gtr II 
    >       < 
                                    ~~~~~~~~~~~~~~~~~ 
   +h      +h        +w            +w 
|-(14)----(14)----|-(14)--------|-(14)--------------| 
|-(14)----(14)----|-(14)--------|-(14)--------------| 
|-(14)----(14)----|-(14)--------|-(14)--------------| 
|-----------------|-------------|-------------------| 
|-----------------|-------------|-------------------| 
|-----------------|-------------|-------------------| 
| 
| gtr i 
|                                   < 
|                                   ~~~~~~~~~~~~~~~~~ 
|   w                 w             e  +e  +h. 
|-----------------|-------------|-------------------| 
|-----------------|-------------|-------------------| 
|-----------------|-------------|---2--(2)-(2)------| 
|-----------------|-------------|---2--(2)-(2)------| 
|-----------------|-------------|-------------------| 
|-----------------|-------------|-------------------| 
 
 
 ~~~~~~~~~~~~~~~~~~~~~~~~~~~~~~~~~~~~~~~~~~~~~~~~~~~~~~~~~~~~~~~~~~ 
   s    s   s   s   s   s   s   s   s   s   s   s   s   s   s   s 
|-14--(17)-14-(17)-14-(17)-14-(17)-14-(17)-14-(17)-14-(17)-14-(17)-| 
|------------------------------------------------------------------| 
|------------------------------------------------------------------| 
|------------------------------------------------------------------| 
|------------------------------------------------------------------| 
|------------------------------------------------------------------| 
| 
|~~~~~ 
| +w 
|------------------------------------------------------------------| 
|------------------------------------------------------------------| 
|-(2)--------------------------------------------------------------| 
|-(2)--------------------------------------------------------------| 
|------------------------------------------------------------------| 
|------------------------------------------------------------------| 
 
 
   ~~~~~~~~~~~~~~~~~~~~~~~~~~~~~~~~~~~~~~~~~~~~~~~~~~~~~~~~ 
   s    s   s   s   s   s   s   s   h       +h..        e 
|-14--(17)-14-(17)-14-(17)-14-(17)-------|-------------14-| 
|----------------------------------14----|-(14)-----------| 
|----------------------------------------|----------------| 
|----------------------------------------|----------------| 
|----------------------------------------|----------------| 
|----------------------------------------|----------------| 
| 
|  ~~~~~~~~~~~~~~~~~~~~~~~~~~~~~~~~~~~~~~~~~~~~~~~~~~~~~~~~ 
| +w                                        +w 
|----------------------------------------|----------------| 
|----------------------------------------|----------------| 
|-(2)------------------------------------|--(2)-----------| 
|----------------------------------------|----------------| 
|----------------------------------------|----------------| 
|----------------------------------------|----------------| 
 
 
 ~~~~~~~~~~~~~~~~~~~~~~~~~~~~~~~~~~~~~~~~~~~~~~~ 
   w              +w            +e   q   e  +q.      e 
|--------------|-------------|------14--------------14--| 
|--------------|-------------|----------------------14--| 
|-14-----------|-(14)--------|-(14)-----14-(14)-----14--| 
|--------------|-------------|--------------------------| 
|--------------|-------------|--------------------------| 
|--------------|-------------|--------------------------| 
| 
|~~~~~~~~~~~~~~~~~~~~~~~~~~~~~~~~~~~~~~~~~~~~~~~~~~ 
| +q   h.         +w             h          +e  q. 
|--------------|-------------|--------------------------| 
|------2-------|--(2)--------|---2----------(2)-2-------| 
|-(2)----------|-------------|--------------------------| 
|--------------|-------------|--------------------------| 
|--------------|-------------|--------------------------| 
|--------------|-------------|--------------------------| 
 
 
  gtr iii 
    h             e   e           +s   s  e         e  q.    +h 
|------------------------------------------------|------------------| 
|------------------------------------------------|----14----(14)----| 
|--------------------16b18r======(16)p14-14------|----14----(14)----| 
|------------------------------------------------|-16-14----(14)----| 
|------------------------------------------------|------------------| 
|------------------------------------------------|------------------| 
|                                                |-riff a 
| gtr ii 
|                                  ~~~~~ 
|  +e    e   e e  e   e            e.          s    e  q.    +h 
|-(14)-------------------------------------------|----14----(14)----| 
|-(14)---------------16-----------16p=========14-|----14----(14)----| 
|-(14)---------------16-----------16p=========14-|----14----(14)----| 
|-----------16s9s20------------------------------|-16---------------| 
|------(14)--------------------------------------|------------------| 
|------------------------------------------------|------------------| 
|                                                |-riff a1 
| gtr i 
|   ~~~~ 
|                                  |---3----| 
|  +q        q    e.       s       q        e       e  q.    +h 
|------------------------------------------------|------------------| 
|--(2)---------------------4b4.5---4p=======2----|-----2-----(2)----| 
|--------------------------4b4.5---4p=======2----|-----2-----(2)----| 
|------------xs===x\-----------------------------|--4--2-----(2)----| 
|------------------------------------------------|------------------| 
|------------------------------------------------|------------------| 
                                                 |-riff a2 
 
   +h      +e   s        +s    +s   s  e       e  q.    +h 
|-------------------------------------------|------------------| 
|-(14)----(14)-14b14.5==(14)r=(14)----------|----12----(12)----| 
|-(14)----(14)-14b14.5==(14)r=(14)p12-12----|----12----(12)----| 
|-(14)----(14)------------------------------|-14---------------| 
|-------------------------------------------|------------------| 
|-------------------------------------------|------------------| 
| 
|                                                 ~~~~~~~~~~ 
|  +h      +e.            s    +e.        s    e  q.    +h 
|-(14)----(14)------------------------------|------------------| 
|-(14)----(14)-----------14---(14)p======12-|----12----(12)----| 
|-(14)----(14)-----------14---(14)p======12-|----12----(12)----| 
|-------------------------------------------|-14---------------| 
|-------------------------------------------|------------------| 
|-------------------------------------------|------------------| 
| 
|                                                        ~~~~ 
|  +h      +e   s         s    +e      e       e  q.    +h 
|-------------------------------------------|-----3-----(3)----| 
|--(2)-----(2)------------2b3r=(2)p====0----|-----3-----(3)----| 
|--(2)-----(2)--x---------2b3r=(2)p====0----|------------------| 
|--(2)-----(2)--x---------------------------|--2---------------| 
|-------------------------------------------|------------------| 
|-------------------------------------------|------------------| 
 
 
                 pm 
   +q    +q      e   s        +s   +e   e      e  q.    +h 
|-------------------------------------------|------------------| 
|-(12)--(12)\--------------------------14---|----14----(14)----| 
|-(12)--(12)\---13--16b18====(16)r(16)-14---|----14----(14)----| 
|-------------------------------------------|-16---------------| 
|-------------------------------------------|------------------| 
|-------------------------------------------|------------------| 
| 
|   ~~~~ 
|  +h           +e   s        +s   +e   e      e  q.    +h 
|-------------------------------------------|----14----(14)----| 
|-(12)---------(12)-16b16.5==(16)r(16)p14---|----14----(14)----| 
|-(12)---------(12)-16b17====(16)r(16)p14---|----14----(14)----| 
|-------------------------------------------|-16---------------| 
|-------------------------------------------|------------------| 
|-------------------------------------------|------------------| 
| 
|   ~~~~ 
|  +h           +e   s        +s   +e   s s    e  q.    +h 
|--(3)----------(3)-------------------------|------------------| 
|--(3)----------(3)--4b5======(4)r=(4)--4p2-|-----2-----(2)----| 
|--------------------4b5======(4)r=(4)--4p2-|-----2-----(2)----| 
|-------------------------------------------|--4--2-----(2)----| 
|-------------------------------------------|------------------| 
|-------------------------------------------|------------------| 
 
 
   +e   +e   e e   e   s        +s   +e        e      e  q.    +h 
|--------------------------------------------------|-------------------| 
|-(14)-(14)\----------14b14.5==(14)r(14)-----------|----12----(12)-----| 
|-(14)-(14)\---x---x--14b14.5==(14)r(14)------12h==|=14-12----(12)-----| 
|--------------------------------------------------|-------------------| 
|--------------------------------------------------|-------------------| 
|--------------------------------------------------|-------------------| 
| 
|                                                        ~~~~~~~~~~ 
|  +h             +e   s        +s   +e        e      e  q.    +h 
|-(14)-----------(14)------------------------------|-------------------| 
|-(14)-----------(14)-14b14.5==(14)r(14)p=====12---|----12----(12)-----| 
|-(14)-----------(14)-14b15====(14)r(14)p=====12---|----12----(12)-----| 
|--------------------------------------------------|-14----------------| 
|--------------------------------------------------|-------------------| 
|--------------------------------------------------|-------------------| 
| 
|                                                                    ~ 
|  +h             +e   e              s   +e     s    e  q.     q.   e 
|--------------------------------------------------|-----3------3----3-| 
|--(2)------------(2)--2--------------2b3r(2)------|-----3------3----3-| 
|--(2)------------(2)--2--------------2b3r(2)p===0-|-------------------| 
|--(2)---------------------------------------------|--2----------------| 
|--------------------------------------------------|-------------------| 
|--------------------------------------------------|-------------------| 
 
 
   +e   e q   e     e         +e.  s    e  q           e   e  s      +s   +s   s  e 
|------------------------------------|-------------------------------------------------| 
|-(12)\------------16b17r====(16)p14-|----14-------------------------------------------| 
|-(12)\-------x----------------------|----14-----------------16b18==(16)r(16)p14-14----| 
|------------------------------------|-16-14-------------------------------------------| 
|------------------------------------|-------------------------------------------------| 
|------------------------------------|-------------------------------------------------| 
| 
|   ~~~~~                      ~~~~~                                       ~~~~~ 
|  +h         e.          s   +e.  s    e  e  e        e   e  e           +e.        s 
|------------------------------------|-------------------------------------------------| 
|-(12)--------x\---------16--(16)----|----14--x-------14---x-16----------(16)p======14-| 
|-(12)--------x\---------16--(16)p14-|----14--x-------14---x-16----------(16)p======14-| 
|------------------------------------|-16----------------------------------------------| 
|------------------------------------|-------------------------------------------------| 
|------------------------------------|-------------------------------------------------| 
| 
|   ~~~~~~~~~~~~~                                          pm 
|  +h        +s  s  s    +s   +e.  s    e  e +e       +e   e  e           +e      e 
|--(3)-------(3)---------------------|-------------------------------------------------| 
|--(3)-------(3)-x--4b5==(4)r=(4)----|-----2-(2)b2.5==(2)r----4b5r========(4)----------| 
|----------------x--4b5==(4)r=(4)p=2-|-----2-(2)b3====(2)r-3--4b5r========(4)p====2----| 
|------------------------------------|--4----------------------------------------------| 
|------------------------------------|-------------------------------------------------| 
|------------------------------------|-------------------------------------------------| 
 
 
   e  q.                    e  s        +s   +s   s  e 
 
 
 
 
 
 
|----------------------------------------------------------| 
|-----------------------------14b14.5==(14)r(14)p12--------| 
|----14---------------------5-14b14.5==(14)r(14)p12-12-----| 
|-16-14----------------------------------------------------| 
|----------------------------------------------------------| 
|----------------------------------------------------------| 
| 
|                              ~~~~~~~~~~~~~~~~~~~ 
|  e  e   +e         +e     e  e             +e.        s 
|----------------------------------------------------------| 
|----14--(14)b14.5==(14)r-----14------------(14)p======12--| 
|----14--(14)b15====(14)r-----14------------(14)p======12--| 
|-16-------------------------------------------------------| 
|----------------------------------------------------------| 
|----------------------------------------------------------| 
| 
|  e  q.                  a e  e             +e.        s 
|----------------------------------------------------------| 
|-----2------------------------2b3r==========(2)-----------| 
|-----2---------------------2--2b3r==========(2)p=======0--| 
|--4--2-------------------x--------------------------------| 
|----------------------------------------------------------| 
|----------------------------------------------------------| 
 
 
   e  q               e   e  e         +e   e 
|------------------------------------------------| 
|----12------------------------------------------| 
|----12---------------x---x-14b16r====(14)p12----| 
|-14------------------x---x--x-------------------| 
|------------------------------------------------| 
|------------------------------------------------| 
| 
|                            ~~~~~~~~~~~~~~~ 
|  e  e   +e         +e   e  e         +e.     s 
|------------------------------------------------| 
|----12--(12)b12.5==(12)r---14--------(14)p===12-| 
|----12--(12)b13====(12)r---14--------(14)p===12-| 
|-14---------------------------------------------| 
|------------------------------------------------| 
|------------------------------------------------| 
| 
| 
|  e  q.                  e  s    +s   +e.     s 
|-----3------------------------------------------| 
|-----3----------------------2b3==(2)r=(2)p====0-| 
|----------------------------------------------0-| 
|--2---------------------------------------------| 
|------------------------------------------------| 
|------------------------------------------------| 
 
 
   e  q               e   e  s        +s   +e   e 
|---------------------------------------------------| 
|---------------------------------------------------| 
|----12\--------------------16b18====(16)r(16)p14---| 
|-14------------------------------------------------| 
|---------------------------------------------------| 
|---------------------------------------------------| 
| 
| 
|  e  e   +e         +e   e  s        +s   +e   e 
|---------------------------------------------------| 
|----12--(12)b12.5==(12)r---16b16.5==(16)r(16)p14---| 
|----12--(12)b12.5==(12)r---16b17====(16)r(16)p14---| 
|-14------------------------------------------------| 
|---------------------------------------------------| 
|---------------------------------------------------| 
| 
|                                            ~~~~~ 
|  e  q.                  e  e             +e.    s 
|-----3---------------------------------------------| 
|-----3----------------------4b5r==========(4)------| 
|----------------------------4b5r==========(4)p===2-| 
|--2------------------------------------------------| 
|---------------------------------------------------| 
|---------------------------------------------------| 
 
 
   e  e   e        e   e  s        +s   +s   s  e 
|----------------------------------------------------| 
|----14\---------------x-16b16.5==(16)r(16)p14-------| 
|----14\-----------------16b16.5==(16)r(16)p14-14----| 
|-16-----(0)-----------------------------------------| 
|----------------------------------------------------| 
|----------------------------------------------------| 
| 
|  e  q.               e  s        +s   +s   s  e 
|----14----------------------------------------------| 
|----14----------------x-16b16.5==(16)r(16)p14-------| 
|----14----------------x-16b17====(16)r(16)p14-14----| 
|-16-------------------------------------------------| 
|----------------------------------------------------| 
|----------------------------------------------------| 
| 
|                      pm                ~~~~~ 
|  e  e  +e       +e   e  e             +e.       s 
|----------------------------------------------------| 
|-----2--(2)b2.5==(2)r----4b5r==========(4)----------| 
|-----2--(2)b3====(2)r-3--4b5r==========(4)-------2--| 
|--4-------------------------------------------------| 
|----------------------------------------------------| 
|----------------------------------------------------| 
 
 
   e  e   +q     e   s        +s   +s   s  s  s 
|-----------------------------------------------| 
|----14----------x--14b14.5==(14)r(14)----------| 
|----14--(14)\---x--14b14.5==(14)r(14)p12-12-12-| 
|-16--------------------------------------------| 
|-----------------------------------------------| 
|-----------------------------------------------| 
| 
|                                   ~~~~~ 
|  e  q.         e   e             +e.        s 
|-----------------------------------------------| 
|----14-------------14------------(14)p======12-| 
|----14-------------14------------(14)p======12-| 
|-16--------------------------------------------| 
|-----------------------------------------------| 
|-----------------------------------------------| 
| 
|  pm                               ~~~~~ 
|  e  q.         e   e             +e.        s 
|-----------------------------------------------| 
|-----2--------------2b3r==========(2)----------| 
|-----2--------------2b3r==========(2)p=======0-| 
|--4------------(0)-----------------------------| 
|-----------------------------------------------| 
|-----------------------------------------------| 
 
 
   e  q        e  q        e  e          +e    e  q        e  e       +q 
|-------------------------------------|--------------------------------------| 
|----12----------12b12.5-----12b12.5==|=(12)r----12b12.5-----12b12.5r(12)\---| 
|----12----------12b13-------12b13====|=(12)r----12b13-------12b12.5r(12)\---| 
|-14----------14----------14----------|-------14----------14-----------------| 
|-------------------------------------|--------------------------------------| 
|-------------------------------------|--------------------------------------| 
|                                                                 end riff a-| 
| 
|  e  q        e  q        e  e          +e    e  q        e  q. 
|-------------------------------------|--------------------------------------| 
|----12b12.5-----12b12.5-----12b12.5==|=(12)r----12b12.5-----12\-------------| 
|----12b12.5-----12b13-------12b13====|=(12)r----12b13-------12\-------------| 
|-14----------14----------14----------|-------14----------14-----------------| 
|-------------------------------------|--------------------------------------| 
|-------------------------------------|--------------------------------------| 
|                                                                end riff a2-| 
| 
|  e  q        e  q        e  e          +e    e  q        e  e       +e   e 
|-----3-----------3-----------3-------|--(3)------3-----------3-------(3)\---| 
|-----3-----------3-----------3-------|--(3)------3-----------3-------(3)\---| 
|-------------------------------------|--------------------------------------| 
|--2-----------2-----------2----------|--------2-----------2-----------------| 
|-------------------------------------|--------------------------------------| 
|-------------------------------------|--------------------------------------| 
                                                                 end riff a3-| 
 
   ~~~~~~~~~~~~~~~~~~~~~~    ~~~~~~~~~~~~~~~~~~ 
   h.           +s  +s  e    h.            +s   s s +s 
|-------------------------|-----------------------------| 
|-------------------------|-----------------------------| 
|-/9------------(9)-(9)s2s|=13------------(13)-13s2-(2)s| 
|-------------------------|-----------------------------| 
|-------------------------|-----------------------------| 
|-------------------------|-----------------------------| 
| 
|                                 pm--------------| 
|  w                         q    e e e e   e     e 
|-------------------------|-----------------------------| 
|-------------------------|-----------------------------| 
|-------------------------|--1--------------------------| 
|-------------------------|--2----2-2-2-2---2-----2-----| 
|--2----------------------|-----------------------------| 
|--0----------------------|-----------------------------| 
| 
|  e  e e e e e  e      e    e  e e e e e   e     e 
|-------------------------|-----------------------------| 
|-------------------------|-----------------------------| 
|-----------7-7--7------7-|--9--9-9-9-9-9---9-----9-----| 
|--9--9-9-9-9-9--9------9-|--9--9-9-9-9-9---9-----9-----| 
|--7--7-7-7-7-7--7------7-|--7--7-7-7-7-7---7-----7-----| 
|--0--0-0-0-0-0--0------0-|--0--0-0-0-0-0---0-----0-----| 
 
 
   ~~~~~~~~~~~~~                   ~~~~~~~~~~~~~~~~~~~ 
   h        +e   e e.    s        +h.            +e.    +s 
|------------------------------|----------------------------|| 
|-----------------------10b12==|=(10)-----------(10)r==(10)-|| 
|-14-------(14)-14s2-----------|----------------------------|| 
|------------------------------|----------------------------|| 
|------------------------------|----------------------------|| 
|------------------------------|----------------------------|| 
| 
|                                                    pm 
|  q   e e   e   e e  e            e  e e e e e   e  e 
|------------------------------|----------------------------|| 
|------------------------------|----------------------------|| 
|--2---2-2---2---2-2--2--------|------2-4-2-4-2-------------|| 
|--2---2-2---2---2-2--2--------|------2-4-2-4-2---4--2------|| 
|------------------------------|------------------4--2------|| 
|------------------------------|----------------------------|| 
| 
|                                                    pm 
|  e e e e   e   e e  e            e  e e e e e   e  e 
|------------------------------|----------------------------|| 
|------------------------------|----------------------------|| 
|--9-9-9-9---9---9-9--9--------|---9--2-4-2-4-2-------------|| 
|--9-9-9-9---9---9-9--9--------|---9--2-4-2-4-2---4--2------|| 
|--7-7-7-7---7---7-7--7--------|---7--------------4--2------|| 
|--0-0-0-0---0---0-0--0--------|---0------------------------|| 
 
 
               ~~~~~~~~~~~~~~~~~~~~~~~~~~~~~~~~~~~~~~~ 
   h          +h           +e    +q.       +h 
|-----------------------|----------------------------| 
|-12b14======(12)-------|-(12)-({12})-----(12)-------| 
|-----------------------|----------------------------| 
|-----------------------|----------------------------| 
|-----------------------|----------------------------| 
|-----------------------|----------------------------| 
| 
|                   pm 
|  q      q    e  e e e    +e     e   e e   e  e e e 
|-----------------------|----------------------------| 
|-----------------------|----------------------------| 
|-----------------------|---------2---4-2---4--2-----| 
|---------4----2--4-2-4-|--(4)----2---4-2---4--2-4-2-| 
|--4------4----2--4-2-4-|--(4)-------------------4-2-| 
|--2--------------------|----------------------------| 
|-rhy fig 1 
 
 ~~~~~~~~~~~~~~~~~~~~~~~~~ 
   +w                 +w 
|------------------|--------------------------| 
|-(12)-------------|-(12)---------------------| 
|------------------|--------------------------| 
|------------------|--------------------------| 
|------------------|--------------------------| 
|------------------|--------------------------| 
| 
|                  gtr iv 
|   w                  q    e e    +q.     e 
|------------------|--------------------------| 
|------------------|----------5pb7-(5)-----5--| 
|------------------|--------------------------| 
|------------------|--------------------------| 
|------------------|--------------------------| 
|------------------|--------------------------| 
| 
|   q   q  e e e e    +e  e e e     e  e e e 
|------------------|--------------------------| 
|------------------|--------------------------| 
|------------------|------2-4-2-----4--2------| 
|------------------|------2-4-2-----4--2-4-2--| 
|---4---4--x-4---4-|--(4)----------------4-2--| 
|---2---2--x-2---2-|--(2)---------------------| 
 
 
   ~~~~~~~~~~~~~~~~~~~~~~~~~~~~~~~~~~~~~~~~~~~~~~~~~~ 
   w                     +w 
|---------------------|-----------------------------| 
|-12------------------|-(12)------------------------| 
|---------------------|-----------------------------| 
|---------------------|-----------------------------| 
|---------------------|-----------------------------| 
|---------------------|-----------------------------| 
| 
|                                           \1/ 
|                         ~~~~ 
|              |-3--| 
| +h.         +q    e    +h        +q      +e     e 
|---------------------|---------------------------2-| 
|-(5)r========(5)---5-|--(5)-------(5)b6---(5)pb7---| 
|---------------------|-----------------------------| 
|---------------------|-----------------------------| 
|---------------------|-----------------------------| 
|---------------------|-----------------------------| 
| 
|                                                 pm 
|  q   q  e e  e  e      +e  e e e  e    e  e     e 
|------0--------------|-----------------------------| 
|------0--------------|-----------------------------| 
|---------------------|--------4-2--4----2----------| 
|--2---2--------------|--------4-2--4----2--4-----2-| 
|--2---2--5-5s=4--4---|--(4)-0--------------4-----2-| 
|--0---0--------------|-----------------------------| 
 
 
 ~~~~~~ 
   +w 
|---------------------------------------| 
|-(12)----------------------------------| 
|---------------------------------------| 
|---------------------------------------| 
|---------------------------------------| 
|---------------------------------------| 
| 
|                     ~~~ 
|   s e. e    a +s  s e.    s s s s s 
|-----------------------------2---------| 
|---5p2---------------------2---5p2-----| 
|--------4b6==4r(4)p2-4b6-----------4b6-| 
|---------------------------------------| 
|---------------------------------------| 
|---------------------------------------| 
| 
|   q    q            e   e   e   e 
|---------------------------------------| 
|---------------------------------------| 
|---------------------------------------| 
|---------------------------------------| 
|---4----4------------x---4-------4-----| 
|---2----2------------x---2-------2-----| 
 
 
                                   verse 1 & 2 
                                gtr i 
    ~~~~~~~~~~~                                 ~~~~~~~~~~~~ 
   +e      +e    +q     h            e       e  q       +q.      e 
|-------------------------------||---------------------------------------| 
|-(12)r===(12)--(12)\-----------||o-----------------------------14b14.5==| 
|-------------------------------||--14b14.5---------------------14b14.5==| 
|-------------------------------||----------16-16------(16)--------------| 
|-------------------------------||o--4-----------------------------------| 
|-------------------------------||---2-----------------------------------| 
|                                    w 
| 
|                               gtr iv 
|                                               ~~~~~~~~~~~~~~~~~~~~~~~~~~ 
|  +s   s   s s   e   e e e e e      q         +q       +q.      e 
|-------2-----------------------||---------------------------------------| 
|-----------5p2-----------------||o------------------------------2-------| 
|--(4)r-----------4---2-4-2-----||-------------------------------2-------| 
|---------------------------4-2-||---4---------(4)------(4)------2-------| 
|-------------------------------||o--------------------------------------| 
|-------------------------------||---------------------------------------| 
| 
|                               gtr ii 
|                                    pm            pm--| 
|  +e       e     e   e e e e e      q          e  s s   e  e e  e 
|-------------------------------||--------------2-----------2----2-------| 
|-------------------------------||o-------------2-----------2----2-------| 
|-----------2-----4---2-4-2-----||-------------------------------2-------| 
|-----------2-----4---2-4-2-4-2-||---4-------------4-4---4---------------| 
|--(4)----------------------4-2-||o--------------------------------------| 
|--(2)--------------------------||---------------------------------------| 
                  end rhy fig 1-| 
 
   +e   +e    q    h          +w 
|---------------------------|---------------------| 
|-(14)-(14)r\---------------|---------------------| 
|-(14)-(14)r\---------------|---------------------| 
|---------------------------|---------------------| 
|--(4)----------------------|-(4)-----------------| 
|--(2)----------------------|-(2)-----------------| 
|  +w 
| 
|~~~~~~~~~~~~~~~~~~~~~ 
|  +h             +e  e q      w 
|---------------------------|---------------------| 
|--(2)------------(2)-------|---------------------| 
|--(2)------------(2)-------|---------------------| 
|--(2)------------(2)-------|---------------------| 
|---------------------------|---------------------| 
|---------------------------|---------------------| 
| 
|   pm        pm|         pm   ~~~     pm|   pm 
|   e    e    e e  e  e e e    q   e s s e e e e 
|---------------------------|------2-------2---2--| 
|--------2---------4--------|------2-------2---2--| 
|--------2----4-2--4--2-----|---------------------| 
|---4----2----4---------4-2-|--4-----x-4-4---4----| 
|---------------------------|---------------------| 
|---------------------------|---------------------| 
 
 
  gtr i 
                    pm                                        pm 
  +h        +e  e e e   h..              e   +h..             e 
|---------------------|------------------0-|-(0)----------------| 
|---------------------|------------------0-|-(0)----------------| 
|---------------------|--------------------|--------------------| 
|---------------------|--------------------|------------------4-| 
|-(4)-------(4)-4-3-2-|-2------------------|--------------------| 
|-(2)-------(2)-2-1-0-|-0------------------|--------------------| 
| 
| gtr ii 
|  pm        pm-|                                     pm--|   pm 
|  e  e e e  e  e e e   q    e s s e e e e   +e   e e e e e e e 
|---------------------|------0-------0---0-|-(0)----------------| 
|-----2-4-2--4--2-----|------0-----0---2-0-|-(0)--2-4-2-4-2-----| 
|-----2-4-2--4--2-----|-1------x-x-1-------|------2-4-2-4-2-----| 
|--4--------------4-0-|-2------x-x---------|----------------4-2-| 
|---------------------|--------------------|--------------------| 
|---------------------|--------------------|--------------------| 
 
 
  w                  +e  e e e e e e e   q  q   e e e e   +e  e e e e e e e 
|------------------|-------------------|----------------|-------------------| 
|------------------|-------------------|----------------|-------------------| 
|------------------|-----2-4-2-4-2-----|----------------|-----2-4-2-4-2-----| 
|------------------|-----2-4-2-4-2-4-2-|----------------|-----2-4-2-4-2-4-2-| 
|-4----------------|-(4)-----------4-2-|-4--4---x-4---4-|-(4)-----------4-2-| 
|-2----------------|-(2)---------------|-2--2---x-2---2-|-(2)---------------| 
| 
| ~                                                 pm                  pm| 
| q  e s s e e e e    e  e e e e e e e   q  e e e e e e    e  e e e e e e e 
|----2-------2---2-|-------------------|----------2---2-|-------------------| 
|----2-x-x-2-2---2-|--4----------------|----2-x---2-2-2-|-----2-4-2-4-2-----| 
|------------------|--4--2-4-2-4-2-----|----2-x---------|-----2-4-2-4-2-----| 
|-4----------------|-----2-4-2-4-2-4-2-|----------------|---------------4-2-| 
|------------------|---------------4-2-|-4------x-------|-------------------| 
|------------------|-------------------|-2------x-------|-------------------| 
 
 
  q  q     e e e e   +e  e e e e e e e   q  q   e e e e 
 
|------------------|-------------------|----0-----------| 
|------------------|-------------------|----0-----------| 
|------------------|-----2-4-2-4-2-----|----------------| 
|------------------|-----2-4-2-4-2-4-2-|-2--2-----------| 
|-4--4-----x-4---4-|-(4)-----------4-2-|-2--2---5-5s4-4-| 
|-2--2-----x-2---2-|-(2)---------------|-0--0-----------| 
| 
| ~        pm 
| q  e s s e e e e    e  e e e e e e e   q  e e e e e e 
|----2-------2---2-|-------------------|----0-----0---0-| 
 
|----2-x-x---2---2-|-----2-4-2-4-2-----|----0---0---2---| 
|------x-x---------|-----2-4-2-4-2-----|-1----x-1-------| 
|-4--------4-------|---------------4-0-|-2----x---------| 
|------------------|-------------------|----------------| 
|------------------|-------------------|----------------| 
 
 
  +e  e e e e     e   e e   q  e e   e e e e   e e e e e e e e 
|-------------------------|------------------|-----------------|| 
|-------------------------|------------------|-----------------|| 
|-----2-4-2---------------|------------------|---2-4-2-4-2-----|| 
|-----4-4-2-4-----2-------|------------------|---2-4-2-4-2-----|| 
|-(4)-----------------4-0-|-4--4-x---x-4---4-|-------------4-0-|| 
|-------------------------|----2-x---x-2---2-|-----------------|| 
| 
|  pm-----|                 ~        pm                    pm 
|  e  e e e e     e   e e   q  e s s e e e e   e e e e e e e e 
|-------------------------|----2-------2---2-|-----------------|| 
|-----2-----4b4.5---------|----2-x-x---2---2-|-----------------|| 
|-----2-4-2-4b4.5-2b3-----|------x-x---------|---2-4-2-4-2-----|| 
|--2----4-------------4-2-|-4--------4-------|---2-4-2-4-2-2---|| 
|-------------------------|------------------|---------------0-|| 
|-------------------------|------------------|-----------------|| 
 
 
 Chorus 
  gtr i 
|-rhy fig 2a 
  a5           b5           f#5 
  w            w            w              +w 
  |            |            |               | 
  /            /            /               / 
 
  gtr ii 
  q  h.        q  h.        e. s h.        +w 
|------------|------------|--------------|--------| 
|------------|------------|--------------|--------| 
|----2-------|----4-------|--------------|--------| 
|-2--2-------|-4----------|------4-------|-(4)----| 
|-0----------|-2----------|----4---------|--------| 
|------------|------------|-2------------|--------| 
|-rhy fig 2 
 
  a5             b5            f#5                         a 
  w              w             w              +e q  e q  e e 
  |              |             |               | |  | |  | | 
  /              /             /               / /  x /  / o 
 
                                                           pm 
  e. s h.        e e h.        e. s h.         e q  e q  e e 
|--------------|-------------|--------------|-----------------| 
|----2-2-------|-------------|--------------|-----------------| 
|----2-2-------|-----4-------|--------------|-----------------| 
|-2----2-------|---4---------|------4-------|----4--x-4--4----| 
|-0----0-------|-2-----------|----4---------|--4------4--4-0--| 
|--------------|-------------|-2------------|--2------2--2----| 
 
 
  a5             b5 
  w              w 
  |              | 
  /              / 
 
                     ~~~~~~~~~ 
  e. s h.        e e h    +s   e  s 
|--------------|--------------------| 
|--------------|--------------------| 
|------2-------|-----4----(4)-(0)-x-| 
|-2--2---------|---4----------(0)-x-| 
|-0------------|-2------------------| 
|--------------|--------------------| 
 
                           end rhy fig 2a-| 
  f#5                                       a5 
   q  e e     e e e e    q  e e +e +e e e   w 
   |  | |     | |   |    |  | |  |  | | |   | 
   /  / x     / /   /    /  / /  /  / x x   / 
 
   h          h          h       e  e e e   e e h. 
|---------------------|-------------------|-----------| 
|---------------------|-------------------|-----------| 
|---------------------|-------------------|-----2-----| 
|--7----------6-------|--4----------------|---2-------| 
|---------------------|-------------------|-0---------| 
|--5----------4-------|--2-------0--1-2-4-|-----------| 
|                           end rhy fig 2-| 
| 
| gtr iii 
|  h       a  h          h       h          w 
|---------------------|-------------------|-----------| 
|---------------------|-------------------|-----------| 
|-14------11s13-------|-11----------------|-----------| 
|---------------------|-------------------|-----------| 
|-12-------9s11-------|--9----------------|-----------| 
|---------------------|-------------------|-----------| 
 
 
  1. 
  b5 
  q.   e +h       w           w 
  |    |  | 
  /    /  / 
 
                gtrs i, ii 
          ~~~ 
  h      +h       w          +e  e e e e e e e 
|---------------|----------|-------------------|| 
|---------------|----------|-------------------|| 
|---------------|----------|-----2-4-2-4-2-----|| 
|-4------(4)----|-4--------|-(4)-2-4-2-4-2-4-2-|| 
|-2------(2)----|-4--------|-(4)-----------4-2-|| 
|---------------|-2--------|-(2)---------------|| 
 
 
w/rhy fig 1 
  gtr iii 
  w                w 
|---------------|-------------------| 
|---------------|-------------------| 
|---------------|-------------------| 
|---------------|-------------------| 
|---------------|-------------------| 
|---------------|-------------------| 
 
 
  h       h           +q      q     +e  e e  e 
|-------------------|----------------------------------| 
|-------------------|-------------------x-x-17pb19.5===| 
|-------({0})-------|-(0)------------------------------| 
|-------------------|----------------------------------| 
|-------------------|-------({0})---(0)----------------| 
|-------------------|-------({0})---(0)----------------| 
 
 
                                     ~~~ 
                        |---3---| 
   +q    +q    +e   +e  e  e    e    h.            s   s  s  s 
|---------------------------------|---------------14p-------17b19==| 
|-(17)--(17)--(17)r(17)14---------|-17----------------17p14--------| 
|------------------------------14-|--------------------------------| 
|-------------------------16------|--------------------------------| 
|---------------------------------|--------------------------------| 
|---------------------------------|--------------------------------| 
 
 
                                                               |---3---| 
   +q     e      +e    e  s  s  e     e    +q     +e      +e   e  e    e  e     +e 
|-(17)r--17b18==(17)r-14-------16b17-16-|-(16)---(16)b17r(16)p14----------------------|| 
|------------------------17p14----------|------------------------17p==14-------------o|| 
|---------------------------------------|--------------------------------16b18r(16)---|| 
|---------------------------------------|---------------------------------------------|| 
|---------------------------------------|--------------------------------------------o|| 
|---------------------------------------|---------------------------------------------|| 
 
 
  2. 
  gtr iii 
          pm|   ~ 
  h    q  e e   w 
|-------------|----------| 
|-------------|----------| 
|---------4-4-|-6--------| 
|-------------|----------| 
|-------------|----------| 
|-------------|----------| 
| 
| gtr ii 
| w             w 
|-------------|----------| 
|-------------|----------| 
|-4-----------|-6--------| 
|-4-----------|-6--------| 
|-2-----------|-4--------| 
|-------------|----------| 
| 
| gtr i 
| w             w 
|-------------|----------| 
|-------------|----------| 
|-4-----------|-6--------| 
|-4-----------|-6--------| 
|-2-----------|-4--------| 
|-------------|----------| 
 
 
  +q    e e  e       e             +s   s  e 
|--------------------------------------------|| 
|--------------------------------------------|| 
|-(6)\--x-x-14------16b18r========(16)p14-14-|| 
|--------------------------------------------|| 
|--------------------------------------------|| 
|--------------------------------------------|| 
| 
|  q    q    e       s        +s   +e      e 
|--------------------------------------------|| 
|-------------------16b16.5==(16)r(16)-------|| 
|--6\---------------16b16.5==(16)r(16)----14-|| 
|--6\----------------------------------------|| 
|--4\----------------------------------------|| 
|--------------------------------------------|| 
| 
| +h         e      +e             +e      e 
|--------------------------------------------|| 
|--------------------------------------------|| 
|-(6)--------4b4.5==(4)r===========(4)-----2-|| 
|-(6)--------4b4.5==(4)r===========(4)-----2-|| 
|-(4)----------------------------------------|| 
|--------------------------------------------|| 
 
interlude 
riffs a, a1, a2 
 
 
   bridge 
    gtrs i, ii 
|-rhy fig 3                                    end rhy fig 3-| 
    g5         f#5  g5   a             d   a             g5 
    w          h    q.   s s   h    +e e e e   h..       s s 
    |          |    |    | |   |     | |   |   |         | | 
    /          /    /    / /   /     / /   /   /         / / 
|-----------|---------------|---------------|----------------| 
 
rhy fig 3 
 
             f#5  g5   a   b5         a                  g 
  w          h    q.   e   q  q  e q  e   q  q  e q.     h..       e 
  |          |    |    |   |  |  | |  |   |  |  | |      |         | 
  /          /    /    o   /  /  / /  /   /  /  x /      /         x 
|----------|-------------|--------------|--------------|---------------| 
 
 
                  guitar solo 
  gtr i          |-rhy fig 4 
  f#5   d5  a5b5 
  q  q  e e e e    +q    q   e       e   e e 
  |  |  | | | |     |    |   |       |     | 
  /  /  / / / /     /    /   /       /     / 
 
  h     e e e e    +e  e e e e      +e   e e 
|---------------||--------------------------------| 
|-------7-7-7---||-------9---9b9.5==(9)r---9b9.5==| 
|-------7-7-7---||-------9---9b10===(9)r---9b10===| 
|-------------9-||-(9)-9---9----------------------| 
|---------------||--------------------------------| 
|---------------||--------------------------------| 
 
 
               d5  a5b5 
  +q   q       e e e e   +q  q     e e e e 
   |   |       | | | |    |  |     | |   | 
   /   /       / / / /    /  /     / /   / 
 
                          ~~ 
  +q   s +s  e e e e e    q  e s s e e e e 
|----------------------|-------------------| 
|-(9)--9r(9)p7-9-7-----|-----7-9-9-9-7-9---| 
|-(9)--9r(9)p7-9-7-----|-----7-9-9-9-7-9-7-| 
|------------------9-7-|--9--------------7-| 
|----------------------|-------------------| 
|----------------------|-------------------| 
 
 
                      d5    a5 
  +q           q      e e e e 
   |           |      | | | | 
   /           /      / / / / 
 
   e      +e  +e  s s e e e s s 
|-------------------------------| 
|--9b9.5==(9)r(9)---------7-----| 
|--9b10===(9)r(9)-7h9-9---7-9p7s| 
|-----------------------7-------| 
|-------------------------------| 
|-------------------------------| 
 
                                             end rhy fig 4-| 
                                               d5      a5b5 
  +q    q   e   e   e e      +q         q      e   e   e e 
   |    |   |   |     |       |         |      |   |   | | 
   /    /   /   /     /       /         /      /   /   / / 
 
                                     ~~~~~~ 
                                               |--3--| 
   e  e e e s s s s e s. t   +s  s s s +e  s s e e   e e e 
|--------------------------|-------------------------------| 
|--------------------------|-------------------------------| 
|-(6)-7-6-7-6h7p6---6----6-|-(6)---------------------------| 
|-----------------9---9----|-----9---9-(9)-7---9-----7-----| 
|--------------------------|-----------------9---9-----9-8-| 
|--------------------------|-------------------------------| 
 
 
                                                      d5        a5  b5 
  +q                 q    e   e   e e   +q     q       e   e    e   e 
   |                 |    |   |     |    |     |       |   |    |   | 
   /                 /    /   /     /    /     /       /   /    /   / 
 
   s    +s  s   +s  +e  e s s e   e e    q     q      +e  +e    s e    s 
|-------------------------------------|--------------------------------------| 
|-------------------------------------|-------------------------------10b12==| 
|-------------------------------------|--------------------------------------| 
|---------------------------7---------|---------------------------9----------| 
|--8pb9r(8)-7b8r(7)-(7)p5---7-5b6-----|--------------------------------------| 
|-------------------------7-------7-7-|-10b11--7b12===(7)-(7)r\--------------| 
 
 
w/rhy fig 4 
                  ~~~~~~~~ 
                          |-3--| 
   +e       +e    q   +e  s  s s  q 
|-------------------------7------10b11---| 
|-(10)b13==(10)r-10--(10)---10p7---------| 
|----------------------------------------| 
|----------------------------------------| 
|----------------------------------------| 
|----------------------------------------| 
 
 
 
   |-3--|  |-3-| 
   e  e e  e e e  s s s  s s  s s s 
|--x------10---9h10p9p7----9----7h9p| 
|--x-10p7---------------10---10-----| 
|-----------------------------------| 
|-----------------------------------| 
|-----------------------------------| 
|-----------------------------------| 
 
 
                                                                 ~~ 
              |--3--|                                   |--3--| 
   s  s  s s  e  e  e  s  e.       +s    s  s  s    q   e  e  e  q    s  s  s  s 
|--7----10------10-------12b14====(12)r-10-------|-14-----------17---14-17-------| 
|----10----8s12----12-10-------------------12-10-|-----17-14---------------14-17-| 
|------------------------------------------------|-----------16------------------| 
|------------------------------------------------|-------------------------------| 
|------------------------------------------------|-------------------------------| 
|------------------------------------------------|-------------------------------| 
 
 
   ~~                          ~~~~~~~~~ 
       |--3--|                                                       |---3---| 
   q   e  e  e  e.    s  s  s  e    +e   s  s  s  s  s  s  +e.    s  e  e    e 
|-----14-------17----14----------|------14-------17----17-(17)---14-17------17b19==| 
|-17-----17-14----------17p14-17-|-(17)----17p14----14-----------------14----------| 
|--------------------------------|-------------------------------------------------| 
|--------------------------------|-------------------------------------------------| 
|--------------------------------|-------------------------------------------------| 
|--------------------------------|-------------------------------------------------| 
 
 
                      a5    b5 
   +q     q             e    e        e          e 
    |     |             |    |                   | 
    /     /             /    /                   / 
 
               ~~~~~~~~~~~~~ 
   +q    +s    e.      +e    e       +s    e. 
|-(17)--(17)r-17pb19==(17)r-17pb19==(17)r----------| 
|-----------------------------------------17pb18r==| 
|--------------------------------------------------| 
|--------------------------------------------------| 
|--------------------------------------------------| 
|--------------------------------------------------| 
 
 
                                        b               c# 
   +w                                    w                h.      +e. s 
    |                                    |                |        |  | 
    /                                    /                /        /  / 
 
                                                ~~~~~~~~~~~~~ 
   +e   e  e  e  s  s  s  s  e  e     a  h     +h        +w 
|---------------------------------||------------------|------------------|| 
|-(17)-16-------------------------||------------------|------------------|| 
|---------16-14-------------------||-14s16----(16)----|-(16)-------------|| 
|---------------16p15p14-12-14-12-||------------------|------------------|| 
|---------------------------------||------------------|------------------|| 
|---------------------------------||------------------|------------------|| 
 
 
  dv                                          a       b 
  w                   +h               q      q       w 
  |                    |               |      |       | 
  /                    /               /      o       / 
 
                            \0.5___________/ 
  h    +q   +e.  s    +q   +e     +e  +e  +q    +e    w 
|-------------------|-------------------------------|------| 
|-7----(7)--(7)-----|-------------------------------|-4----| 
|-7----(7)--(7)-----|-------------------------------|-4----| 
|-7----(7)--(7)-<7>-|-(7)--(7)----(7)-(7)-(7)---(7)-|-4----| 
|-5----(5)--(5)-----|-------------------------------|-2----| 
|-------------------|-------------------------------|------| 
 
 
  Gtrs I, II 
 
 
  C#         DV                     C#   B          C# 
  W          Q.   E H      +H    Q  Q    W          W 
  |          |    | |       |    |  |    |          | 
  /          /    / /       /    /  /    /          / 
|----------|-------------|-------------|----------|------| 
 
 
  DV                                                           C#   B 
  Gtr I 
  W                            +H                         Q    Q    W 
  |                             |                         |    |    | 
  /                             /                         /    /    / 
 
  Gtr II 
                                \0.5__________/ 
  Q  +Q.    S   +S    +Q       +E      +E    +E    +E    +H         W 
|---------------------------|-------------------------------------|------| 
|-7--(7)---<7>-(<7>)-(<7>)--|-(<7>)---(<7>)-(<7>)-(<7>)-(<7>)-----|-4----| 
|-7--(7)---<7>-(<7>)-(<7>)--|-(<7>)---(<7>)-(<7>)-(<7>)-(<7>)-----|-4----| 
|-7--(7)--------------------|-------------------------------------|-4----| 
|-5--(5)--------------------|-------------------------------------|-2----| 
|---------------------------|-------------------------------------|------| 
 
 
  C#         DV                            C# 
  W          W          +H.                Q 
  |          |           |                 | 
  /          /           /                 / 
 
  W          W          +E  E    +E  E E E Q 
|----------|----------|-----------------------|| 
|-6--------|-7--------|-(7)-------------------|| 
|-6--------|-7--------|-(7)-9b10r(9)-9--------|| 
|-6--------|-7--------|-(7)-9b10r(9)-9--------|| 
|-4--------|-5--------|-(5)------------5-5----|| 
|----------|----------|--------------------5--|| 
 
 
 Chorus 
w/Rhy Fig 2 & 2A 
 
|------------|------------|--------------|------------|------------| 
 
 
|-------------|--------------|----------------| 
 
 
|--------------|---------------------| 
 
 
  Gtr III 
   H       H          H       E  E  E  E 
|------------------|---------------------| 
|------------------|---------------------| 
|-14------13-------|-11-------9s11-11s14-| 
|------------------|---------------------| 
|-12------11-------|--9-------7s=9--9s12-| 
|------------------|---------------------| 
 
 
  A5                                 B5 
   W                                  W 
   |                                  | 
   /                                  / 
 
   E E  H.                            W 
|----------------------------------|----------------------| 
|----------------------------------|----------------------| 
|-------2--------------------------|----------------------| 
|----2-----------------------------|----------------------| 
|--0-------------------------------|----------------------| 
|----------------------------------|----------------------| 
| 
|  ~~~~~~~~~~~~~~~~~~~~~~~~~          ~~~~~~~~~~~~~~   PM 
|       |--3---|            |-3--| 
|  Q    E   E  E  +E  E    +E  E E    Q   E  E  +Q   E E 
|----------------------------------|----------------------| 
|----------10----------------------|-----10---------------| 
|-11---11-----11-(11)--------------|-11-----11-(11)-------| 
|---------------------9b11r(9)p7---|----------------------| 
|--------------------------------9-|-----------------9-9--| 
|----------------------------------|----------------------| 
 
 
  A5                  B5                  A5 
  Gtr II 
   W                   W                   W 
   |                   |                   | 
   /                   /                   / 
 
  Gtr III 
   ~~~~~~~~~~~~        ~~~~~~~~~~~~        ~~~~~~~~~~~~~~ 
   Q   E  E  Q  E E    Q   E  E  Q  E E    Q   E  E  +E  E  E E 
|-------------------|-------------------|-----------------------| 
|-----10------------|-----10------------|-----10----------------| 
|-11-----11-11------|-11-----11-11------|-11-----11-(11)---11---| 
|---------------9---|---------------9---|-----------------------| 
|-----------------9-|-----------------9-|----------------9----9-| 
 
|-------------------|-------------------|-----------------------| 
 
 
                                 Outro 
  Gtr II 
   E  E  E  E  E  E       E  E 
|------------------------------|| 
|------------------------------|| 
|-----2--4--2--4--2------------|| w/Rhy Fig 1 (1st 4 bars x4) 
|--4--2--4--2--4--2-------4--2-|| 
|--2----------------------4--2-|| 
|------------------------------|| 
| 
| Gtr III 
|                                  ~~                 ~~~ 
|  E  E  E  E  E  E       E  E     Q   E  E  E  E  E  E 
|------------------------------||-----------------------| 
|----14-16-14-16-14b14.5-------||-----------16----------| 
|-11-14-16-14-16-14b14.5-------||-----14----16----------| 
|------------------------16-14-||-16--14-16----16-16-16-| 
|------------------------------||-----------------------| 
|------------------------------||-----------------------| 
 
 
 ~~~~~~ 
   +E   E  E  E  E  E       E  E 
|--------------------------------| 
|------14-16-14-16---------------| 
|------14-16-14-16-14b14.5-------| 
|-(16)---------------------16-14-| 
|--------------------------------| 
|--------------------------------| 
 
 
   ~~                 ~~~~~~~~~                        ~~                 ~~ 
   Q   E  E  E  E  E  E    +E   E  E  E  E  E  E  E    Q   E  E  E  E  E  E 
|-----------------------|---------------------------|-----------------------| 
|-----------16-14-------|---------14----16-14-------|-----14----------------| 
|-----14----16-14-14----|---------14----16-14-------|-----14----16-14-------| 
|-16--14-16----------16-|-(16)-16----16-------16-14-|-16-----16-------16-16-| 
|-----------------------|---------------------------|-----------------------| 
|-----------------------|---------------------------|-----------------------| 
 
 
    ~~~~                            ~~ 
   +E   E  E  E  E  E       E  E    Q   E  E  E  E  E  E 
|--------------------------------|-----------------------------| 
|---------16----16---------------|-----------16-14----16b16.5==| 
|------14-16-14-16-14b14.5-------|-----14----16-14----16b16.5==| 
|-(16)-14------------------16-14-|-16-----16-------16----------| 
|--------------------------------|-----------------------------| 
|--------------------------------|-----------------------------| 
 
 
   +Q      E  E  E  E  S     +S   E 
|-----------------------------------| 
|-(16)r---16-14-16-14-16b17r(16)-14-| 
|-(16)r---16-14-16-14-16b17r(16)-14-| 
|-----------------------------------| 
|-----------------------------------| 
|-----------------------------------| 
 
 
                            ~~~~~~~~ 
   Q      E  E  E     E  E  E 
|--------14----------14------------| 
|-17b19-----14-17b19----14-17pb19==| 
|----------------------------------| 
|----------------------------------| 
|----------------------------------| 
|----------------------------------| 
 
 
 ~~~~~~~                                                            ~~~~~~ 
   +Q      E     +E       +E    E  E  E    Q      E  E  E     E  E  E 
|---------17b19r(17)b19==(17)r-17-14----|--------14----------14-----------| 
|-(17)r------------------------------14-|-17b19-----14-17b19----14-17b19==| 
|---------------------------------------|---------------------------------| 
|---------------------------------------|---------------------------------| 
|---------------------------------------|---------------------------------| 
|---------------------------------------|---------------------------------| 
 
 
    ~~~~~ 
   +E    E  E     +E       +E    E  E  E 
|-------14-17b19r(17)b19==(17)r-17-14----| 
|-(17)r-------------------------------14-| 
|----------------------------------------| 
|----------------------------------------| 
|----------------------------------------| 
|----------------------------------------| 
 
 
                            ~~~~~~~~~~~~~~ 
   Q      E  E  E     E  E  E        +Q      E     +E       +E    E  E  E 
|--------14----------14-----------|---------17b19r(17)b19==(17)r-17-14----| 
|-17b19-----14-17b19----14-17b19==|=(17)r------------------------------14-| 
|---------------------------------|---------------------------------------| 
|---------------------------------|---------------------------------------| 
|---------------------------------|---------------------------------------| 
|---------------------------------|---------------------------------------| 
 
 
                                     ~~~ 
   Q      E  S  S  E      +S   S  E  E 
|--------14----------------------------| 
|-17b19-----17-14----------------------| 
|-----------------16pb17r(16)-14-------| 
|--------------------------------16-16-| 
|--------------------------------------| 
|--------------------------------------| 
 
 
                                     Q.       +E   H 
|---------------------------------|------------------------| 
|---------------------------------|------------------------| 
|---------------------------------|------------------------| 
|---------------------------------|------------------------| 
|---------------------------------|--4--------(4)\---------| 
|---------------------------------|--2--------(2)\---------| 
| 
|~~~~~~                              ~~~ 
|  +E   E  a  E  E  E  E     E  E    Q    +Q       E E  Q 
|---------------------------------|------------------------| 
|---------------------------------|------------------------| 
|---------------------------------|------------------------| 
|-(16)-14-------------------------|------------------------| 
|---------16s14-12-14-12b13-------|------------------------| 
|---------------------------14-12-|-14---(14)s=====1h2-h2--| 
 
 
  W          W          W 
|----------|----------|------*| 

	  

Full key step upFull key step up
Half key step upHalf key step up
Half key step downHalf key step down
Full key step downFull key step down
Search Paypal
auto scroll beats size up size down change color hide chords drawings
tab show chords e-chords YouTube Clip e-chords hide all tabs e-chords go to top tab