Creed

One Last Breath

Creed

tabs Expert expert

save to print version add songbook text version e-mail correct tuner
chordsukulelecavacokeyboardtabbassdrumsharmonicaflute Guitar Pro
close
one-last-breath-by-creed

there is a video lesson for this song

chords

One Last Breath

Year: 2001 - Album: Greatest Hits (w/ Bonus DVD)

	  		Intro: A introdução baseia - se nos acordes 'D A Bm G'. É só fazê -
 los e dedilhar de acordo com o riff abaixo que fica bem mais fácil.


Riff 1
E--2---5---0h2-----------------------------------------------3-2-----|
B--------------3-----2-3-5-5p3p2h3------3-2h3------------3-----------|
G------------------2-----------------4--------4-----0------2---------|
D--0----------------------------------------------0---0--------------|
A-----------------0------------------2-------------------------------|
E-----------------------------------------------3--------------------|

E---2--3--2-----0h2p0--------------------------2--------3------------|
B---------------------3--------2h3p2----------2--------3-------------|
G-----------------------------2-----2---4-----4--4--------4----------|
D---0-0--0---0---------------2---------4----4----4----5---5----------|
A------------------------4-0----------------2---------5--------------|
E----------------------------------------------------3---------------|

                  //////////////////////

E---2--3--2------------------------------------------3--------------|
B-----------3----------2-3-2-------3-2-3-----------3----3-----------|
G-------------2------2-----------4-------4-------0--------0---------|
D---0--------------2------------------------------------------------|
A-----------------------------0-2-----------------------------------|
E----------------------------------------------3--------------------|

  (TERMINE COM O DEDILHADO A CIMA)
		  

Full key step upFull key step up
Half key step upHalf key step up
Half key step downHalf key step down
Full key step downFull key step down
hide glossary

See also:

tabs Guns N' Roses - Since I Don't Have You tabs The Offspring - The Kids Aren't Alright tabs Foo Fighters - Everlong Acoustic tabs Simon & Garfunkel - Sounds of silence tabs The Doors - Roadhouse Blues tabs The Doors - People Are Strange
e-chords

Other versions:

tabs Creed - One Last Breath tabs Creed - One Last Breath (ver. 2) tabs Creed - One Last Breath (ver. 3) tabs Creed - One last breathe
auto scroll beats size up size down change color hide chords drawings
tab show chords e-chords YouTube Clip e-chords hide all tabs e-chords go to top tab

share