Creed

One Last Breath

Creed

bass Easy easy

save to print version add songbook text version e-mail correct tuner
chordsukulelecavacokeyboardtabbassdrumsharmonicaflute Guitar Pro
close

there isn't a video lesson for this song

chords

One Last Breath

Year: 2001 - Album: Greatest Hits (w/ Bonus DVD)

	  		

Artist :  
Song : 
Tabber : Chaf Revolutionary ([email protected])

G|-------------------------------------------------------------------------------------------------------------------------|
D|----------------------------------------------------------------------------1~------------------------------------------|
A|--0--5-5----5----0--0----2--2----2----10--0----5-5----5----5h7-----------2--4----5----5----0----2------------|
E|------------------------------------------------------------------------------------------------------------------5------|

G|-------------------------------------------------------------------------------------------------------------------------|
D|-----------------------1~-------------------------------------------------1~--------5----5--7--7h9--7---------------|
A|--5-5----5----5h7--------2--------------2--4----5-5----5----5h7-------2------------------------------------------|
E|-----------------------------------5--5---------------------------------------------------------------------------------|

G|----------------------------------4-------------------------------|
D|-----------------------1~----4--------5-5-5-5------------------|
A|--5-5----5----5h7------------------------------5-5-5-5-------|
E|-------------------------------------------------------------------|

Chorus
G|----------------------------------------------------------------------------------------------------------------------------------------------|
D|----------------------------------------------------------------------------------------------------------------------------------------------|
A|--5--5------------------------2--2------------------------5---5---5----5-------------------------2---2-----------------------------------|
E|---------4--4--2--4--2--4---------5--5--5--5----5-----------------------4--4--2--4--2--4-----------5----5----5--5--5--5-5----------|

G|---------------------------------------------------------------------------------------------------------------------------------------------------------|
D|----------------------------------------------------------------------------------------------------------------------------------------------------------|
A|--5----5------------------------2----2---------------------------5---5---5----5--------------------------2----2--------------------------------------|
E|-----------4--4--2--4--2--4---------------5--5--5--5----5-------------------------4--4--2--4--2--4--------------5-----5----5--5--5--5-5--------|

G|-----------------------------------------------------------------------------------|
D|-----------------------------------------------------------------------------------|
A|--2---2----------------------------------2---2-----------------------------------|
E|-----------5----5----5--5--5--5-5--------------5----5----5--5--5--5-5--------|

G|---------------------------------------------------------------------------------------------------------------------------|
D|---------------------------------------------------------------------------------------------------------------------------|
A|--------------------------------5----5--7--9--5--5----5----5--5--5--4--0---------------------2------2---------------|
E|--2---2---5-----5--5--5---------------------------------------------------------4----4--2--2------4------4--5--------|

G|----------------------------------------------------------------|
D|----------------------------------------------------------------|
A|----------------------------------------------------------------|
E|--5--5----5--5--5--5--5----5--5--5--5--5--5--5------------|

G|---------------------------------------------------------------------------------------------------------------------------|
D|---------------------------------------------------------------------------------------------------------------------------|
A|--------------------------------5----5--7--9--5--5----5----5--5--5--4--0---------------------2------2------------|
E|--2---2---5-----5--5--5---------------------------------------------------------4----4--2--2------4------4--5-----|

G|----------------------------------------------------------------|
D|----------------------------------------------------------------|
A|-------------------------------------------------------------5--|
E|--5--5----5--5--5--5--5----5--5--5--5--5--5--5------------|

Chorus
G|----------------------------------------------------------------------------------------------------------------------------------------------|
D|----------------------------------------------------------------------------------------------------------------------------------------------|
A|--5--5------------------------2--2------------------------5---5---5----5-------------------------2---2---------------------------------|
E|---------4--4--2--4--2--4----------5--5--5--5----5-----------------------4--4--2--4--2--4-----------5----5----5--5--5--5-5-------|

G|--------------------------------------------------------------------------------------------------------------------------------------------------|
D|--------------------------------------------------------------------------------------------------------------------------------------------------|
A|--5----5------------------------2----2-----------------------5---5---5----5--------------------------2---2---------------------------------|
E|-----------4--4--2--4--2--4-------------5--5--5--5----5----------------------4--4--2--4--2--4-------------------------------------------|

		  

See also:

bass The Killers - Somebody told me (ver. 2) bass Guns N' Roses - Estranged bass Guns N' Roses - Attitude bass The Offspring - Want You Bad bass Kiss - Beth bass Foo Fighters - Ever Long
e-chords

Other versions:

bass Creed - One Last Breath bass Creed - One Last Breath (ver. 2) bass Creed - One Last Breath (ver. 3) bass Creed - One Last Breath( ver. 2)
auto scroll beats size up size down change color hide chords drawings
tab show chords e-chords YouTube Clip e-chords hide all tabs e-chords go to top tab

share