Green Day

home > Green Day

Holiday ( Easy Version) Tab

Green Day

Difficulty: BeginnerBeginner

by Donkey+Fly

tuner correct add songbook print version text version save to e-mail
chordsukulelecavacokeyboardtabbassdrumsharmonicsflute Guitar Pro
chords

Holiday ( Easy Version)

  		Intro 
 
E ------------------------------------------------------------------ 
B ------------------------------------------------------------------ 
G ------------------------------------------------------------------ 
D ------------------------------------------------------------------ 
A ------------------------------------------------------------------ 
E--10--10--------6--6---------13---13----9-9-9-9------          X 4 
 
Verses 
 
E------------------------------------------------------------------ 
B------------------------------------------------------------------ 
G------------------------------------------------------------------ 
D------------------------------------------------------------------ 
A------------------------------------------------------------------ 
E--10--10-----6--6------1--1-------8-8-8-8---------             Repeated Throughout the verses 
 
 Guitar Solo 
 
E--------------------------------------------------------------------------3-8-12-13-- 
B--6-6-8-5-2-1-8-9-3-1-11-13-11-13-6-6-8-9-8-3-1------------ 
G----------------------------------------------------------- 
D----------------------------------------------------------- 
A----------------------------------------------------------- 
E----------------------------------------------------------- 
 
Chorus 
 
E------------------------------------------------------------------ 
B------------------------------------------------------------------ 
G------------------------------------------------------------------ 
D------------------------------------------------------------------ 
A-----------------------5---3---1-----------3-3----1--------------------- 
E----10--10--10------------------8---------------------5----3-------------- 
 
Chorus Continued.... 
 
E------------------------------------------------------------------ 
B------------------------------------------------------------------ 
G------------------------------------------------------------------ 
D------------------------------------------------------------------ 
A-----------------------5----3---1---------3---3--------3---1------------- 
E---10--10--10--------------------8--------------5------------------------- 
 
Outro 
 
E------------------------------------------------------------------ 
B------------------------------------------------------------------ 
G------------------------------------------------------------------ 
D------------------------------------------------------------------ 
A------------------------------------------------------------------ 
E--10--10-----6--6------1--1-------8-8-8-8---------             X 3........... 
 
Outro Continued 
 
E------------------------------------------------------------------ 
B------------------------------------------------------------------ 
G------------------------------------------------------------------ 
D-----------------------------------10------4-----10-------------------- 
A-----------------------------------10------6-----10-------------------- 
E--10--10-----6--6------------ 8-------6------8------------------             
 
Lyrics 
 
Hear the sound of the falling rain 
Coming down like an Armageddon flame (Hey!) 
The shame 
The ones who died without a name 
 
Hear the dogs howling out of key 
To a hymn called "Faith and Misery" (Hey!) 
And bleed, the company lost the war today 
 
I beg to dream and differ from the hollow lies 
This is the dawning of the rest of our lives 
On holiday 
 
Hear the drum pounding out of time 
Another protestor has crossed the line (Hey!) 
To find, the money's on the other side 
 
Can I get another Amen? (Amen!) 
There's a flag wrapped around the score of men (Hey!) 
A gag, A plastic bag on a monument 
 
I beg to dream and differ from the hollow lies 
This is the dawning of the rest of our lives 
On holiday 
 
"The representative from California has the floor" 
 
Zieg Heil to the president gasman 
Bombs away is your punishment 
Pulverize the Eiffel towers 
Who criticize your government 
Bang bang goes the broken glass and 
Kill all the fags that don't agree 
Trials by fire, setting fire 
Is not a way that's meant for me 
Just cause, just cause, because we're outlaws yeah! 
 
I beg to dream and differ from the hollow lies 
This is the dawning of the rest of our lives 
I beg to dream and differ from the hollow lies 
This is the dawning of the rest of our lives 
 
This is our lives on holiday 
 
 
Thanks , Enjoy , Donkey fly 

	  

Search Paypal
auto scroll beats size up size down change color hide chords drawings
tab show chords e-chords YouTube Clip e-chords hide all tabs e-chords go to top tab