Albert Hammond Jr

Holiday

Albert Hammond Jr

tabs

by  LINEKERS

save to print version add songbook text version e-mail correct tuner
chordsukulelecavacokeyboardtabbassdrumsharmonicaflute Guitar Pro
close

there isn't a video lesson for this song

chords

Holiday

	  		guitarra 1: 
e|---5----------------------------------5----------  
b|---5----------------------------------5---------- 
g|---6----------------------------------6---------- 
d|---7----------------------------------7---------- 
a|---7----------------------------------7---------- 
E|---5----------------------------------5---------- 

e|---2--------2----------------5--------5----------| 
b|---3--------3----------------5--------5----------| 
g|---4--------4----------------6--------6----------| 
d|---4--------4----------------7--------7----------|  
a|---2--------2----------------7--------7----------| 
E|---2--------2----------------5--------5----------|  

guitarra 2 
e|------------------ 
b|------------------ 
g|------------------ 
d|---7-------------- 
a|---7-------------- 
E|---5--------------  

guitarra 1: 
e|---5----------------------------------5----------  
b|---5----------------------------------5---------- 
g|---6----------------------------------6---------- 
d|---7----------------------------------7---------- 
a|---7----------------------------------7---------- 
E|---5----------------------------------5---------- 

e|---2--------2----------------5--------5----------| 
b|---3--------3----------------5--------5----------| 
g|---4--------4----------------6--------6----------| 
d|---4--------4----------------7--------7----------|  
a|---2--------2----------------7--------7----------| 
E|---2--------2----------------5--------5----------| 

guitarra 1: 
e|---x-x--x--x--x-x-x--x-x-x-x-----------------| 
b|---x-x--x--x--x-x-x--x-x-x-x-----------------| 
g|---6-6--6--6--6-6-6--6-6-6-6-----------------| x4 
d|---7-7--7--7--7-7-7--7-7-7-7-----------------| 
a|---7-7--7--7--7-7-7--7-7-7-7-----------------| 
E|---5-5--5--5--5-5-5--5-5-5-5-----------------| 

guitarra 1: 
e|---5-5--5--5--5-5-5--5-5-5-5-----------------| 
b|---5-5--5--5--5-5-5--5-5-5-5-----------------| 
g|---6-6--6--6--6-6-6--6-6-6-6-----------------| 
d|---7-7--7--7--7-7-7--7-7-7-7-----------------| x2 
a|---7-7--7--7--7-7-7--7-7-7-7-----------------| 
E|---5-5--5--5--5-5-5--5-5-5-5-----------------| 

guitarra 2: 
e|--------7--5--5h7p5---------------------| 
b|-----5---------------6--7---------------| 
g|--6-------------------------------------| x2 
d|----------------------------------------| 
a|----------------------------------------| 
E|----------------------------------------| 

guitarra 1: 
e|---7-7--7--7--7-7-7--7-7-7-7-----------------| 
b|---7-7--7--7--7-7-7--7-7-7-7-----------------| 
g|---7-7--7--7--7-7-7--7-7-7-7-----------------|  
d|---9-9--9--9--9-9-9--9-9-9-9-----------------| 
a|---9-9--9--9--9-9-9--9-9-9-9-----------------| 
E|---7-7--7--7--7-7-7--7-7-7-7-----------------| 

guitarra 2: 
e|--------9--7--7h9p7---------------------| 
b|-----7---------------9--10--------------| 
g|--7-------------------------------------| 
d|----------------------------------------| 
a|----------------------------------------| 
E|----------------------------------------| 

guitarra 1: 
e|---9--9---9---9---9--9--9--9--9--9--9-----------------| 
b|---9--9---9---9---9--9--9--9--9--9--9-----------------| 
g|---9--9---9---9---9--9--9--9--9--9--9-----------------|  
d|---11-11--11--11--11-11-11-11-11-11-11----------------| 
a|---11-11--11--11--11-11-11-11-11-11-11----------------| 
E|---9--9---9---9---9--9--9--9--9--9--9-----------------| 

guitarra 2: 
e|--------9--7--9b(10)-9b(10)--9p7--------| 
b|-----7----------------------------------| 
g|--7-------------------------------------| 
d|----------------------------------------| 
a|----------------------------------------| 
E|----------------------------------------| 

Verso 2x 

guitarra 1: 
e|---5-5--5--5--5-5-5--5-5-5-5-----------------| 
b|---5-5--5--5--5-5-5--5-5-5-5-----------------| 
g|---6-6--6--6--6-6-6--6-6-6-6-----------------|  
d|---7-7--7--7--7-7-7--7-7-7-7-----------------| x4 
a|---7-7--7--7--7-7-7--7-7-7-7-----------------| 
E|---5-5--5--5--5-5-5--5-5-5-5-----------------| 


e|---2-2--2--2--2-2-2--2-2-2-2-----------------| 
b|---3-3--3--3--3-3-3--3-3-3-3-----------------| 
g|---4-4--4--4--4-4-4--4-4-4-4-----------------|  
d|---4-4--4--4--4-4-4--4-4-4-4-----------------| x2 
a|---2-2--2--2--2-2-2--2-2-2-2-----------------| 
E|---2-2--2--2--2-2-2--2-2-2-2-----------------| 


e|---5-5--5--5--5-5-5--5-5-5-5-----------------| 
b|---5-5--5--5--5-5-5--5-5-5-5-----------------| 
g|---6-6--6--6--6-6-6--6-6-6-6-----------------|  
d|---7-7--7--7--7-7-7--7-7-7-7-----------------| x2 
a|---7-7--7--7--7-7-7--7-7-7-7-----------------| 
E|---5-5--5--5--5-5-5--5-5-5-5-----------------| 

Solo 

guitarra 1: 
e|---5-5--5--5--5-5-5--5-5-5-5-----------------| 
b|---5-5--5--5--5-5-5--5-5-5-5-----------------| 
g|---6-6--6--6--6-6-6--6-6-6-6-----------------|  
d|---7-7--7--7--7-7-7--7-7-7-7-----------------| x4 
a|---7-7--7--7--7-7-7--7-7-7-7-----------------| 
E|---5-5--5--5--5-5-5--5-5-5-5-----------------| 

guitarra 2: 
e|-------/9-----------/9---\7---\5---------/9--------------/9---\7---\5--- 
b|--5----/9------5----/9---\7---\5----5----/9---------5----/9---\7---\5--- 
g|--6------------6--------------------6---------------6------------------- 
d|-(7)----------(7)------------------(7)-------------(7)------------------ 
a|------------------------------------------------------------------------ 
E|------------------------------------------------------------------------ 

guitarra 1: 
e|---2-2--2--2--2-2-2--2-2-2-2-----------------| 
b|---3-3--3--3--3-3-3--3-3-3-3-----------------| 
g|---4-4--4--4--4-4-4--4-4-4-4-----------------|  
d|---4-4--4--4--4-4-4--4-4-4-4-----------------| x2 
a|---2-2--2--2--2-2-2--2-2-2-2-----------------| 
E|---2-2--2--2--2-2-2--2-2-2-2-----------------| 

guitarra 2: 
e|--7---\5---------7--4--5--/7---------------------- 
b|--7---\5---------7--5--5--/7---------------------- 
d|-------------------------------------------------- 
g|-------------------------------------------------- 
a|-------------------------------------------------- 
E|-------------------------------------------------- 

guitarra 1: 
e|---5-5--5--5--5-5-5--5-5-5-5-----------------| 
b|---5-5--5--5--5-5-5--5-5-5-5-----------------| 
g|---6-6--6--6--6-6-6--6-6-6-6-----------------|  
d|---7-7--7--7--7-7-7--7-7-7-7-----------------| x2 
a|---7-7--7--7--7-7-7--7-7-7-7-----------------| 
E|---5-5--5--5--5-5-5--5-5-5-5-----------------| 

guitarra 2: 
e|-(5)---/9---------/9---\7---\5--------------------| 
b|--5----/9----5----/9---\7---\5--------------------| 
g|--6----------6------------------------------------| 
d|-(7)--------(7)-----------------------------------| 
a|--------------------------------------------------| 
E|--------------------------------------------------| 

parte 2 
parte 3 
		  

auto scroll beats size up size down change color hide chords drawings
tab show chords e-chords YouTube Clip e-chords hide all tabs e-chords go to top tab

share