Green Day

home > Green Day

Holiday 1 Tab

Green Day

Difficulty: BeginnerBeginner

by Donkey+Fly

tuner correct add songbook print version text version save to e-mail
chordsukulelecavacokeyboardtabbassdrumsharmonicsflute Guitar Pro
chords

Holiday 1

  		                       Green Day 
                        Holiday 
                     American Idiot 
                         2004 
               Tabbed By Aaron Hetherington 
 
This is the correct version, everything about this tab 
is 100% correct......sorry i dont mean to brag but it is 
thanks. 
 
 
Key 
 
Slide Down           \ 
Slide Up             / 
Hammer On            h 
Pull Off             p 
Muted Strings        x 
Vibrato              V 
Bend                 b 
 
 
Intro  x 4 
 
E|----------------------------------------------------|| 
B|--9-9-\-6-6-/-13-13-\-8-8-8-8-----------------------|| 
G|--x-x-\-x-x-/--x--x-\-x-x-x-x-----------------------|| 
D|--x-x-\-x-x-/--x--x-\-x-x-x-x-----------------------|| 
A|--8-8-\-4-4-/-11-11-\-6-6-6-6-----------------------|| 
E|----------------------------------------------------|| 
   
 
Verse x 2 
 
E|-----------------------------------------------------|| 
B|-9-9--------------------9-9--------------------------|| 
G|-x-x---6-6-----8-8-8-8--x-x--6-6-----5-5-5-5---------|| 
D|-x-x---6-6-6-6-8-8-8-8--x-x--6-6-6-6-5-5-5-5---------|| 
A|-8-8---4-4-6-6-6-6-6-6--8-8--4-4-6-6-3-3-3-3---------|| 
E|-----------4-4-------------------4-4-----------------|| 
 
E|-----------------------------------------------------|| 
B|-9-9-------------------------------------------------|| 
G|-x-x--6-6-----8-8-8-8-5-5-5-5-5-5-5-5-5-5-5----------|| 
D|-x-x--6-6-6-6-8-8-8-8-5-5-5-5-5-5-5-5-5-5-5----------|| 
A|-8-8--4-4-6-6-6-6-6-6-3-3-3-3-3-3-3-3-3-3-3----------|| 
E|----------4-4----------------------------------------|| 
 
 
Chorus 
 
E|----------------------------------------------------------|| 
B|----------------------------------------------------------|| 
G|----------------6-6-6-6-6-6-6---------------8-8-8-8-8-8-8-|| 
D|-3-3-3-3-3-3-3--6-6-6-6-6-6-6-6-6-6-6-6-6-6-8-8-8-8-8-8-8-|| 
A|-3-3-3-3-3-3-3--4-4-4-4-4-4-4-6-6-6-6-6-6-6-6-6-6-6-6-6-6-|| 
E|-1-1-1-1-1-1-1----------------4-4-4-4-4-4-4---------------|| 
 
E|------------------------------------------------------------|| 
B|------------------------------------------------------------|| 
G|----------------6-6-6-6-6-6-6---------------5-5-5-5-5-5-5-5-|| 
D|-3-3-3-3-3-3-3--6-6-6-6-6-6-6-6-6-6-6-6-6-6-5-5-5-5-5-5-5-5-|| 
A|-3-3-3-3-3-3-3--4-4-4-4-4-4-4-6-6-6-6-6-6-6-3-3-3-3-3-3-3-3-|| 
E|-1-1-1-1-1-1-1----------------4-4-4-4-4-4-4-----------------|| 
 
Bridge x2 
 
E|-----------------------------------------------------|| 
B|-----------------------------------------------------|| 
G|-----------6---8----------------8----10\-------------|| 
D|-3-3-5-6-6-6-8-8-10--3-3-5-6-6--8-10-10\-------------|| 
A|-3-3-5-6-6-4-8-6-10--3-3-5-6-6--6-10--8\-------------|| 
E|-1-1-3-4-4---6----8--1-1-3-4-4-----8-----------------|| 
 
Solo 
E|---------------------------8---8---------------------|| 
B|--6-6-6-8-9-4-2-1--8-5-1-6---6-----------------------|| 
G|-----------------------------------------------------|| 
D|-----------------------------------------------------|| 
A|-----------------------------------------------------|| 
E|-----------------------------------------------------|| 
 Gtr 2 
E|----------------------------------------------------------|| 
B|----------------------------------------------------------|| 
G|-6-6-6-6-6-6-6-------------5-5-5-5-5-5-5-10101010-8-8-8-8-|| 
D|-6-6-6-6-6-6-66-6-6-6-6-6-65-5-5-5-5-5-5-10101010-8-8-8-8-|| 
A|-4-4-4-4-4-4-46-6-6-6-6-6-63-3-3-3-3-3-3--8-8-8-8-6-6-6-6-|| 
E|--------------4-4-4-4-4-4-4-------------------------------|| 
 
E|-----------------------3-3-3-3-3-3-3-8-8-8-8-8-8-8---|| 
B|-6-6-6-8-9-4-2-1-1-1-1-------------------------------|| 
G|-----------------------------------------------------|| 
D|-----------------------------------------------------|| 
A|-----------------------------------------------------|| 
E|-----------------------------------------------------|| 
 
E|-----------------------------------------------------|| 
B|-----------------------------------------------------|| 
G|-6-6-6-6-6-6-6-------------5-5-5-5-5-5-5-5-5-5-5-5-5-|| 
D|-6-6-6-6-6-6-6-6-6-6-6-6-6-5-5-5-5-5-5-5-5-5-5-5-5-5-|| 
A|-4-4-4-4-4-4-4-6-6-6-6-6-6-3-3-3-3-3-3-3-3-3-3-3-3-3-|| 
E|---------------4-4-4-4-4-4---------------------------|| 
 
E|-12-12-12-12-12-12-12-12-12-12-12-12-13~-------------|| 
B|-----------------------------------------------------|| 
G|-----------------------------------------------------|| 
D|-----------------------------------------------------|| 
A|-----------------------------------------------------|| 
E|-----------------------------------------------------|| 
 
E|-----------------------------------------------------|| 
B|-----------------------------------------------------|| 
G|-5-5-5-5-5-5-5-5-5-5-5-5-5-5-5-5-5-5-5-5-5~----------|| 
D|-5-5-5-5-5-5-5-5-5-5-5-5-5-5-5-5-5-5-5-5-5~----------|| 
A|-3-3-3-3-3-3-3-3-3-3-3-3-3-3-3-3-3-3-3-3-3~----------|| 
E|-----------------------------------------------------|| 
 
E|-----------------------------------------------------|| 
B|-----------------------------------------------------|| 
G|----BASS RIF FOR SO MANY TIMES-----------------------|| 
D|-----------------------------------------------------|| 
A|-----------------------------------------------------|| 
E|---------------------------------------------16\-----|| 
 
E|-----------------------------------------------------|| 
B|-----------------------------------------------------|| 
G|-----------------------------------------------------|| 
D|------------INTERLUDE--------------------------------|| 
A|-----------------------------------------------------|| 
E|-----------------------------------------------------|| 
 
E|-----------------------------------------------------|| 
B|-----------------------------------------------------|| 
G|----------------8----10\--3-/--5---5-5-5-5-----------|| 
D|----------------8 -8-10\--3-/--5---5-5-5-5-----------|| 
A|----------------6--8--8\--1-/--3---3-3-3-3-----------|| 
E|-------------------6---------------------------------|| 
 
 
Outro 
 
E|-----------------------------------------------------|| 
B|10-10------------------------------------------------|| 
G|-x--x-----6-6---8----10\-----------------------------|| 
D|-x--x-----6-6---8-10-10\--------3--------------------|| 
A|-8--8-----4-4---6-10--8\--------3--------------------|| 
E|-------------------8------------1--------------------|| 
 
 
Order 
 
intro x 4 
verse x 2 
Chorus 
intro x 2 
verse x 2 
Chorus 
bridge x 2 
solo 
interlude 
Chorus 
verse x 3 
outro 

	  

Search Paypal
auto scroll beats size up size down change color hide chords drawings
tab show chords e-chords YouTube Clip e-chords hide all tabs e-chords go to top tab