Good Charlotte

home > Good Charlotte

Wondering Tab

Good Charlotte

Difficulty: nolevelnolevel

tuner correct add songbook print version text version save to e-mail
chordsukulelecavacokeyboardtabbassdrummharmonicsflute Guitar Pro
chords

Wondering

  		 
Intro: 
 
|--------------------------------| 
|--------------------------------| 
|--------------------------------| 
|----5---------------------------| 
|3-3---------3-------7-------3-2-| 
|------0-1-1---0-5-5---0-1-1-----| 
 
Intro Fill: 
|--------------------------------| 
|--------------------------------| 
|--------------------------------| 
|----5-----------7-7-7-7-7-7-7-7-| 
|3-3---------3---7-7-7-7-7-7-7-7-| 
|------0-1-1---0-5-5-5-5-5-5-5-5-| 
 
 
Fill 1: 
 
NOTE: This is two different guitars 
 
|----3-1-----1-0-----0-----------| 
|----------------------1-3/5-3-1-| 
|5-5-----------------------------| 
|5-5-----3-3-----7-7-----3-3-----| 
|3-3-----3-3-----7-7-----3-3-----| 
|--------1-1-----5-5-----1-1-----| 
 
 
Verse: (bass part) 
 
|--------------------------------| 
|--------------------------------| 
|--------------------------------| 
|--------------------------------| 
|3-3---3-------------------------| 
|--------1-1---1-5-5---5-1-1---1-| 
 
 
Verse: (guitar part) 
 
|8---10-8--12-8---8---10-8---7-8-| 
|--8----------------8------------| 
|--------------------------------| 
|--------------------------------| 
|--------------------------------| 
|--------------------------------| 
 
 
Verse Fill 1: 
 
|--------------------------------| 
|--------------------------------| 
|*-*---*-------------------------| 
|5-5---5-*-*---*-*-*---*-*-*---*-| 
|3-3---3-3-3---3-7-7---7-3-3---3-| 
|--------1-1---1-5-5---5-1-1---1-| 
 
Verse Fill 2: 
|--------------------------------| 
|--------------------------------| 
|*-*---*-------------------------| 
|5-5---5-*-*---*-*-*---*-3---5---| 
|3-3---3-3-3---3-7-7---7-3---5---| 
|--------1-1---1-5-5---5-1---3---| 
 
 
Pre-Chorus: 
 
|--------------------------------| 
|--------------------------------| 
|----5---------------------------| 
|7---5---3-----------------------| 
|7---3---3-----------------------| 
|5-------1-----------------------| 
Pre-Chorus cont.: 
|--------------------------------| 
|--------------------------------| 
|----3---------------------------| 
|7---3---2-----------------------| 
|7---5---2-----------------------| 
|5-------0-------5-5-3-3-1-1-0-0-| 
 
 
Chorus: 
 
|--------------------------------| 
|--------------------------------| 
|5-------------------------------| 
|5-------3-------7-------3-------| 
|3-------3-------7-------3-------| 
|--------1-------5-------1-------| 
 
Chorus Fill: 
|--------------------------------| 
|--------------------------------| 
|5-------------------------------| 
|5-------3-------7---------------| 
|3-------3-------7---------------| 
|--------1-------5---------------| 
 
 
Solo: 
 
|----5-3-----5-3-----5-3----5----| 
|--1-------1-------1-------------| 
|5-------------------------------| 
|5-------3-------7-------3-------| 
|3-------3-------7-------3-------| 
|--------1-------5-------1-------| 
 
|8---7---5---3--4--4-------------| 
|--------------------5-5-3-3-----| 
|----------------------------4-2-| 
|--------------------------------| 
|--------------------------------| 
|--------------------------------| 
 
 
Fill 2: 
 
|--------------------------------| 
|--------------------------------| 
|--------------------------------| 
|3-3-----5-5-----7---------------| 
|3-3-----5-5-----7---------------| 
|1-1-----3-3-----5---------------| 
 
Fill 2 cont.: 
|--------------------------------| 
|--------------------------------| 
|--------------------------------| 
|2-------------------------------| 
|2-------------------------------| 
|0---------------5-5-3-3-1-1-0-0-| 
 
 
Fill 3: 
 
|--------------------0-2-5-4-2-4-| 
|------------------3-------------| 
|--------------------------------| 
|2-------------------------------| 
|2---------------7-7-5-5-3-3-2-2-| 
|0-------------------------------| 
 
 
Chorus Elevated: 
 
|7-5-----------------------------| 
|----3---------------------------| 
|7-------------------------------| 
|7-------5-------9-------5-------| 
|5-------5-------9-------5-------| 
|--------3-------7-------3-------| 
 
 
Ending: 
 
|----------------| 
|----------------| 
|7---------------| 
|7-------5-------| 
|5-------5-------| 
|--------3-------| 
 
|6-6-----------------------------| 
|----7-7-------------------------| 
|--------6-6-4-4-3-3-------------| 
|4-------------------4-4-2-2-----| 
|4---------------------------1-1-| 
|2-------------------------------| 
 
|----| 
|----| 
|4---| 
|4---| 
|2---| 
|----| 
 
 
 
THE MASTER PLAN!!! 
 
Intro  X3 
Intro Fill 
Fill 1  X2 
Verse (bass)  X2 
Verse (bass and guitar)  X2 
Pre-Chorus 
Pre-Chorus cont. 
Chorus  X3 
Chorus Fill 
Verse (bass and guitar) X4 
	Also play Verse Fill 1 X3 and Verse Fill 2 once. 
Pre-Chorus 
Pre-Chorus cont. 
Chorus  X3 
Chorus Fill 
Fill 1  X2 
Solo 
Fill 2  X3 
Fill 2 cont. 
Intro  X2 
Chorus  X1 
Fill 3 
Chorus Elevated  X3 
Ending 
 
 
 
_______________________________________________________ 
Contribuição: João([email protected]) 
	  

Search Paypal
auto scroll beats size up size down change color hide chords drawings
tab show chords e-chords YouTube Clip e-chords hide all tabs e-chords go to top tab