Good Charlotte

home > Good Charlotte

Wondering Bass Tab

Good Charlotte

Difficulty: nolevelnolevel

tuner correct add songbook print version text version save to e-mail
chordsukulelecavacokeyboardtabbassdrummharmonicsflute Guitar Pro
chords

Wondering

  		



Tabbed by danny182

Intro(00:17)
|--------------------|
|--------------------|
|-3333---------------| x2
|-----1111-5555-3333-|

Verse(00:25)
|---------------------|
|---------------------|
|-3333----------------| x4
|-----1111-5555-11-33-|

Pre Chorus(00:42)
|-----------------------------------|
|-----------------------------------|
|----------33333333-----------------| x1
|-55555555---------1111111111111111-|

then...
|--------------------------------------|
|--------------------------------------|
|----------33333333--------55-33-11-00-| x1
|-55555555---------00000000------------|

Chorus(00:59)
|--------------------|
|--------------------|
|-3333---------------| x4
|-----1111-5555-3333-|

Verse 2(01:16)             then...
|---------------------|   |-------------------|
|---------------------|   |-------------------|
|-3333----------------| x3|-3333--------------|
|-----1111-5555-11-33-|   |-----1111-5555-1-3-|

Pre Chorus(01:33)
|-----------------------------------|
|-----------------------------------|
|----------33333333-----------------| x1
|-55555555---------1111111111111111-|

then...
|--------------------------------------|
|--------------------------------------|
|----------33333333--------55-33-11-00-| x1
|-55555555---------00000000------------|

Chorus(01:50)
|--------------------|
|--------------------|
|-3333---------------| x4
|-----1111-5555-3333-|

Behind Guitar solo(02:07)
|---------------------|
|---------------------|
|-3333----------------| x4
|-----1111-5555-11-33-|

Bridge(02:24)           then...
|------------------|   |----------------------|
|------------------|   |----------------------|
|------------------| x3|-55555555-55-33-11-00-| x1
|1-1--3-3-55555555-|   |----------------------|

pause(02:41)

Ending Chorus(02:49)
|---------------------|
|---------------------|
|-3333----------------| x2
|-----1111-5555-11-33-|
                           End on
|---------------------|   |---|
|---------------------|   |---|
|-3333----------------| x4|---|
|-----1111-5555-3333--|   |-1-|

Im pretty sure this is 100% correct Please Rate this tab

	  

Search Paypal
auto scroll beats size up size down change color hide chords drawings
tab show chords e-chords YouTube Clip e-chords hide all tabs e-chords go to top tab