Good Charlotte

home > Good Charlotte

The Young And The Hopeless Tab

Good Charlotte

Difficulty: nolevelnolevel

tuner correct add songbook print version text version save to e-mail
chordsukulelecavacokeyboardtabbassdrumsharmonicsflute Guitar Pro
chords

The Young And The Hopeless

  		 Intro/verse1:

G1
eb|-----------|
Bb|-----------|
Gb|-----6-----|
Db|--2--6--7--|
Ab|--2--4--7--|
Eb|--0-----5--|

The kinda clean riff play from "hard days..."

G2
eb--4-5-4-5-7-5-4-5-4-|
Bb--------------------|
Gb--------------------|**you play this over the previous progression
Db--------------------|
Ab--------------------|
Eb--------------------| you can dress it up with hammers and pulls
play that until "i know only god can judge me"

prechorus(G1 and G2):
eb--------------|
Bb--------------|
Gb--6-----9-----|
Db--6--7--9--9--|
Ab--4--7--7--9--|
Eb-----5-----7--|

chorus(G1 and G2):
eb--------------|-----|
Bb--------------|-----|
Gb-----6--------|--9--|
Db--2--6--7--9--|--9--|
Ab--2--4--7--9--|--7--|
Eb--0-----5--7--|-----|

Verse2:
G1
eb-----------|
Bb-----------|
Gb-----6-----|
Db--2--6--7--|
Ab--2--4--7--|
Eb--0-----5--|

G2
eb--4-5-4-5-7-5-4-5-4-|
Bb--------------------|
Gb--------------------|
Db--------------------|play until "when i see them on the street they
Ab--------------------|got nothin to say"
Eb--------------------| 

prechorus(G1 and G2):
eb--------------|
Bb--------------|
Gb--6-----9-----|
Db--6--7--9--9--|
Ab--4--7--7--9--|
Eb-----5-----7--|

chorus(G1 and G2):
eb--------------|-----|
Bb--------------|-----|
Gb-----6--------|--9--|
Db--2--6--7--9--|--9--|
Ab--2--4--7--9--|--7--|
Eb--0-----5--7--|-----|

bridge thing:
G1:
eb-----------|
Bb-----------|
Gb--6--5--4--|
Db--6--5--4--|
Ab--4--3--2--|
Eb-----------|

G2:
eb--9--8--7--|
Bb-----------|
Gb-----------|
Db-----------|
Ab-----------|
Eb-----------|

eb--------------|-----|
Bb--------------|-----|
Gb-----6--------|--9--|
Db--2--6--7--9--|--9--|
Ab--2--4--7--9--|--7--|
Eb--0-----5--7--|-----|

eb------------|
Bb------------|
Gb--9---------|
Db--9--10--9--|
Ab--7--10--9--|
Eb------8--7--|

eb------------|
Bb------------|
Gb--9---------|
Db--9--10--2--|
Ab--7--10--2--|
Eb------8--0--|
	  

Search Paypal
auto scroll beats size up size down change color hide chords drawings
tab show chords e-chords YouTube Clip e-chords hide all tabs e-chords go to top tab