Good Charlotte

home > Good Charlotte

The young and the hopeless album Tab

Good Charlotte

Difficulty: nolevelnolevel

by josecbx

tuner correct add songbook print version text version save to e-mail
chordsukulelecavacokeyboardtabbassdrumsharmonicsflute Guitar Pro
chords

The young and the hopeless album

  		 
Standard Tuning 
 
Amp must have overdrive switched on, and distortion on the guitar as well 
to get the sound right 
 
Main Riff: 
 
E------------------------------------------------------------------------------- 
B------------------------------------------------------------------------------- 
G------------------------------------------------------------------------------- 
D-44-44-44-44-44-66-66-66-66-66-88-88-88-88-88-10--10--10--10--10--------------- 
A-44-44-44-44-44-66-66-66-66-66-88-88-88-88-88-10--10--10--10--10--------------- 
E-22-22-22-22-22-44-44-44-44-44-66-66-66-66-66-88--88--88--88--88--------------- 
 
Bridge: 
 
E--------------------------------------------------------- 
B--------------------------------------------------------- 
G--------------------------------------------------------- 
D-4-4-4-44-6-6-6-66-8-8-8-88-10-10-10-1010---------------- 
A-4-4-4-44-6-6-6-66-8-8-8-88-10-10-10-1010---------------- 
E-2-2-2-22-4-4-4-44-6-6-6-66--8---8--8?8-8---------------- 
 
Outro: 
 
E------- 
B------- 
G------- 
D-10~~~-  Hold last note,  hitting the tremelo arm every half second 
A-10~~~- 
E--8-~~~ 
 
Order: 
 
Nothing Until 0:37 
Main Riff x 5 
Bridge x 1 
Main Riff x 7 
Finish at 1:40 
Outro (keep hitting tremelo arm slower every time until 1:50) 
---------------------------------------------------------------------------------- 
02. THE ANTHEM 
 
Eb -------------| 
Bb -------------| 
Gb -------------| 
Db -77----------| 
Ab -55-77-55-77-| 
Eb ----55-33-55-| 
 
Intro Guitar Riff(Heavy Distort.) 
 
Eb-------------------------------------------------------------------------| 
Bb-------------------------------------------------------------------------| 
Gb--7-x-x-7-x-x-7-7-9-11---------------12-12-11-9---------------6-6-7-9----| 
Db--7-x-x-7-x-x-x-x-x-x----7-x-x-7-x-x-x--x--x--x---5-x-x-5-x-x-x-x-x-x----| 
Ab--5-x-x-5-x-x-5-5-7-9----7-x-x-7-x-x-10-10-9--7---5-x-x-5-x-x-4-4-5-7----| 
Eb-------------------------5-x-x-5-x-x--------------3-x-x-3-x-x------------| 
 
 
E-------------------------------------------------------------------------| 
B-------------------------------------------------------------------------| 
G--------------9-9-7-7-6-6-6----------------------------------------------| 
D--7-x-x-7-x-x-x-x-x-x-x-x-x----------------------------------------------| 
A--7-x-x-7-x-x-7-7-5-5-4-4-4----------------------------------------------| 
E--5-x-x-5-x-x------------------------------------------------------------| 
 
Verse x2(Palm mute) 
 
"It's a new day..."  
 
Eb------------------------------------------------------------------------- 
Bb------------------------------------------------------------------------- 
Gb--7-x-x-7-x-x-------------7-x-x-7-x-x--------------7-x-x-7-x-x----------- 
Db--7-x-x-7-x-x-7-x-7-x-7---5-x-x-7-x-x-5-x-5-x-5----7-x-x-7-x-x----------- 
Ab--5-x-x-5-x-x-7-x-7-x-7---5-x-x-5-x-x-5-x-5-x-5----5-x-x-5-x-x----------- 
Eb--------------5-x-5-x-5---------------3-x-3-x-3-------------------------- 
 
(Now Heavy) Fast strumming 
 
Eb---------------------------------------- 
Bb---------------------------------------- 
Gb---------------------------------------- 
Db--7--------5---------------------------- 
Ab--7-(8x)---5-(16x)---------------------- 
Eb--5--------3---------------------------- 
 
 
Pre-Chorus (Heavy) Listen for rythym 
 
"I don't really want to be like you..." 
 
Eb------------------------------------------------------------------------- 
Bb------------------------------------------------------------------------- 
Gb------------------------------------------------------------------------- 
Db--9---------5--------12----------9-------5-------7----------------------- 
Ab--9-(8x)----5--(8x)--12--(16x)---9-(8x)--5-(8x)--7-(16x)----------------- 
Eb--7---------3--------10----------7-------3-------5----------------------- 
 
 
Chorus (Heavy) Ska-beat... 
"You..." 
Eb------------------------------------------------------------------------- 
Bb------------------------------------------------------------------------- 
Gb---7-x-x-----------------7-x-x------------------------------------------- 
Db---7-x-x-7-x--5-5-7-7----7-x-x-7-x-5-5-8-8-8-7--------------------------- 
Ab---5-x-x-7-x--5-5-7-7----5-x-x-7-x-5-5-8-8-8-7--------------------------- 
Eb---------5-x--3-3-5-5----------5-x-3-3-6-6-6-5--------------------------- 
 
Eb------------------------------------------------------------------------- 
Bb------------------------------------------------------------------------- 
Gb---7-x-x-----------------7-x-x------------------------------------------- 
Db---7-x-x-7-x--5-5-7-7----7-x-x-7-x-5------------------------------------- 
Ab---5-x-x-7-x--5-5-7-7----5-x-x-7-x-5------------------------------------- 
Eb---------5-x--3-3-5-5----------5-x-3------------------------------------- 
 
Then do these segments over again: 
*Intro 
*Verse 
*Pre-Chorus 
*Chorus 
 
Interlude 
"Shake it once..." 
(Sorry, this is a bass riff) 
 
Solo 
 
Eb------------------------------------------------------------------------- 
Bb------------------------------------------------------------------------- 
Gb--11-11-11-9--7--9-9-9-9-9----11-11-11-9-11-12-12-12-11-9---------------- 
Db--x--x--x--x--x--x-x-x-x-x----x--x--x--x-x--x--x--x--x--x---------------- 
Ab--9--9--9--7--5--7-7-7-7-7----9--9--9--7-9--10-10-10-9--7---------------- 
Eb------------------------------------------------------------------------- 
 
Eb------------------------------------------------------------------------- 
Bb------------------------------------------------------------------------- 
Gb--11-11-11-9-11-9-9-9-11-9----7-7--7-9-9--9-11-11--11-11-12-11----------- 
Db--x--x--x--x-x--x-x-x-x--x----x-x--x-x-x--x-x--x---x--x--x--x------------ 
Ab--9--9--9--7-9--7-7-7-9--7----5-5--5-7-7--7-9--9---9--9--10-9------------ 
Eb------------------------------------------------------------------------- 
 
 
Breakdown (Clean) 
"You... dont want to be just like you..." 
               -Play intro over again 
 
(Now Jump back in Heavy) 
"This is the Anthem!..." 
Eb------------------------ 
Bb------------------------ 
Gb---7-7-7---------------- 
Db---7-7-7-7---5-5-5-7---- (Keep playing this riff over and over until...) 
Ab---5-5-5-7---5-5-5-7---- 
Eb---------5---3-3-3-5----                
 
 
Outro (Heavy) Ska-beat 
"Another Loser Anthem!...." 
 
Eb----------------------- 
Bb----------------------- 
Gb---7-x-x--------------- 
Db---7-x-x-7-x--5-5-7-7--  (3x) 
Ab---5-x-x-7-x--5-5-7-7-- 
Eb---------5-x--3-3-5-5-- 
 
Then end with... 
E----------------------- 
B----------------------- 
G---7-x-x----------7---- 
D---7-x-x-7-x--5-7-7---- 
A---5-x-x-7-x--5-7-5---- 
E---------5-x--3-5------ 
---------------------------------------------------------------------------- 
03. LIFESTYLES OF THE RICH AND FAMOUS 
 
 
Intro:(play it with no volume, then put it to the top and let ring) 
e|----| 
B|----| 
G|-6--| 
D|-6--| 
A|-4--| 
E|----| 
 
Guitar 1: verse:        Guitar 2: verse: 
e|--------------------||----------------------| 
B|--------------------||----------------------| 
G|-6-6--8-8-------6-6-||-6-6--8-8--11-11--6-6-| 
D|-6-6--8-8--4-4--6-6-||-x-x--x-x---x--x--x-x-| 
A|-4-4--6-6--4-4--4-4-||-4-4--6-6---9--9--4-4-| 
E|-----------2-2------||----------------------| 
 
Guitar 1: PreChorus:"I'd like to see them spend a week" 
e|----------------------------------------------------||---| 
B|----------------------------------------------------||---|\ 
G|---------------------------6-6-6-6-6-6--------------||---|  "Fall..." 
D|-8-8-8-8-8-8--4-4-4-4-4-4--6-6-6-6-6-6--6-6-6-6-6-6-||-4-|/ 
A|-8-8-8-8-8-8--4-4-4-4-4-4--4-4-4-4-4-4--6-6-6-6-6-6-||-4-| 
E|-6-6-6-6-6-6--2-2-2-2-2-2---------------4-4-4-4-4-4-||-2-| 
 
Guitar 2: PreChorus:                        Second preChorus :Guitar fill 
e|-----------------------------------------|-----------------| 
B|-----------------------------------------|-----------------| 
G|-------------------------------6---6-6---|-----------------| 
D|-----8------------4---4-4----6---6-6-6--6|-----------------| 
A|---8---8-8-8----4---4-4-4--4-------4-4--6|---3-3/6-3-4-----| 
E|-6-------6-6--2-------2-2---------------4|-4-----------3-4-| 
 
Chorus Type 1:"Life styles of the rich and the famous" 
e|--------------------------------------------------------------------| 
B|--------------------------------------------------------------------| 
G|-6-6-6-6-6-6-6-6--8-8-8-8-8-8-8-8-------------------6-6-6-6-6-6-6-6-| 
D|-6-6-6-6-6-6-6-6--8-8-8-8-8-8-8-8--4-4-4-4-4-4-4-4--6-6-6-6-6-6-6-6-| 
A|-4-4-4-4-4-4-4-4--6-6-6-6-6-6-6-6--4-4-4-4-4-4-4-4--4-4-4-4-4-4-4-4-| 
E|-----------------------------------2-2-2-2-2-2-2-2------------------| 
 
Interlude: 
e|---------------------------------------------------------| 
B|---------------------------------------------------------| 
G|---------------------------------------------------------| 
D|------------------------------3------------------------3-| 
A|-4-4-4-4-4-4-4-4--2-4h-2-4h-2---2-4-4-4-4--2-4h-2-4h-2---| 
E|---------------------------------------------------------| 
 
Chorus Type 2:(Heavy) 
e|----------------------------------------------------| 
B|----------------------------------------------------| 
G|----------------------------------------------------| 
D|-6-6-6-6-6-6--8-8-8-8-8-8--4-4-4-4-4-4--6-6-6-6-6-6-| 
A|-4-4-4-4-4-4--6-6-6-6-6-6--4-4-4-4-4-4--4-4-4-4-4-4-| 
E|-4-4-4-4-4-4--6-6-6-6-6-6--2-2-2-2-2-2--4-4-4-4-4-4-| 
 
Outro: "life styles of the rich and famous" 
e|-------------------------------| 
B|------------------5------------| 
G|-11--------6------6------------| 
D|-11-(x24)--6-(x4)-6(let ring)--| 
A|-9---------4------4------------| 
E|-------------------------------| 
 
 
| /  slide up 
| \  slide down 
| h  hammer-on 
| p  pull-off 
| ~  vibrato 
| +  harmonic 
| x  Mute note 
--------------------------------------------------------------------------- 
04. Wondering 
 
Although it isn't written that way, this is eb tuning. 
 
Intro: Rhythm Guitar-Play 4 times (0:00)-(0:16)  
E:------------------------------------- 
B:------------------------------------- 
G:------------------------------------- 
D:-----5------------------------------- 
A:-3-3---------3-------7-------3-0----- 
e:-------0-1-1---0-5-5---0-1-1--------- 
 
05. The Story of my old man. 
 
Intro: Lead Guitar-Play 1 time (0:08)-(0:16) 
E:-------0----0----0----0----0--------- 
B:-5-5--5555-5555-5555-5555-5555------- 
G:------------------------------------- 
D:------------------------------------- 
A:------------------------------------- 
e:------------------------------------- 
 
E:------------------------------------- 
B:-55555555---------------------------- 
G:------------------------------------- 
D:------------------------------------- 
A:------------------------------------- 
e:------------------------------------- 
 
Pre-Verse: Rhythm Guitar-Play 2 times (0:16)-(0:25) 
E:------------------------------------- 
B:------------------------------------- 
G:-5555-------------------------------- 
D:-5555-3333-7777-33/5----------------- 
A:-3333-3333-7777-33/5----------------- 
e:------1111-5555-11/3----------------- 
 
Pre-Verse: Lead Guitar-Play 2 times (0:16)-(0:25) 
E:---3-1--1-0--0---0------------------- 
B:--------------1-3-3-1---------------- 
G:-55---------------------------------- 
D:-55---33---77------------------------ 
A:-33---33---77------------------------ 
e:------11---55------------------------ 
 
Guitars Silent- (0:25)-(0:34) 
 
Verse: Rhythm Guitar-Play 2 times Palm Muted (0:34)-(0:42) 
E:------------------------------------- 
B:------------------------------------- 
G:-55-5-------------------------------- 
D:-55-5-33-3-77-7-33-3----------------- 
A:-33-3-33-3-77-7-33-3----------------- 
e:------11-1-55-5-11-1----------------- 
 
Verse: Lead Guitar-Play 2 times (0:34)-(0:42) 
E:-8---10-8--12-8---8---10-8-10--8----- 
B:---8----------------8---------------- 
G:------------------------------------- 
D:------------------------------------- 
A:------------------------------------- 
e:------------------------------------- 
 
Pre-Chorus: Rhythm Guitar-Play 1 time (0:42)-(0:59) 
E:------------------------------------- 
B:------------------------------------- 
G:-22222222-55555555------------------- 
D:-22222222-55555555-3333333333333333-- 
A:-00000000-33333333-3333333333333333-- 
e:-------------------1111111111111111-- 
 
E:------------------------------------- 
B:------------------------------------- 
G:-22222222-55555555------------------- 
D:-22222222-55555555-2222222222222222-- 
A:-00000000-33333333-2222222222222222-- 
e:-------------------0000000000000000-- 
 
Pre-Chorus: Lead Guitar-Play 1 time (0:42)-(0:59) 
E:------------------------------------- 
B:------------------------------------- 
G:-22222222-55555555------------------- 
D:-22222222-55555555-3333333333333333-- 
A:-00000000-33333333-3333333333333333-- 
e:-------------------1111111111111111-- 
 
E:------------------------------------- 
B:------------------------------------- 
G:-22222222-55555555-----77-55-33------ 
D:-22222222-55555555-----55-33-11-22--- 
A:-00000000-33333333-----55-33-11-00--- 
e:--------------------------------00--- 
 
Chorus: Rhythm Guitar & Lead Guitar-Play 1 time (0:59)-(1:16) 
E:------------------------------------- 
B:------------------------------------- 
G:-5555-------------------------------- 
D:-5555-3333-7777-33/5----------------- 
A:-3333-3333-7777-33/5----------------- 
e:------1111-5555-11/3----------------- 
 
E:------------------------------------- 
B:------------------------------------- 
G:-5555-------------------------------- 
D:-5555-3333-7777-33/5----------------- 
A:-3333-3333-7777-33/5----------------- 
e:------1111-5555-11/3----------------- 
 
E:------------------------------------- 
B:------------------------------------- 
G:-5555-------------------------------- 
D:-5555-3333-7777-33/5----------------- 
A:-3333-3333-7777-33/5----------------- 
e:------1111-5555-11/3----------------- 
 
E:------------------------------------- 
B:------------------------------------- 
G:-5555-------------------------------- 
D:-5555-3333-7777-33333333------------- 
A:-3333-3333-7777-33333333------------- 
e:------1111-5555-11111111------------- 
 
Verse: Rhythm Guitar-Play 1 time Palm Muted (Except part inside brackets) (1:16)-(1:33) 
E:------------------------------------- 
B:------------------------------------- 
G:-55-5-------------------------------- 
D:-55-5-33-3-77-7-33-3----------------- 
A:-33-3-33-3-77-7-33-3----------------- 
e:------11-1-55-5-11-1----------------- 
 
E:------------------------------------- 
B:------------------------------------- 
G:-55-5-------------------------------- 
D:-55-5-33-3-77-7-33-3----------------- 
A:-33-3-33-3-77-7-33-3----------------- 
e:------11-1-55-5-11-1----------------- 
 
E:------------------------------------- 
B:------------------------------------- 
G:-55-5-------------------------------- 
D:-55-5-33-3-77-7-33-3----------------- 
A:-33-3-33-3-77-7-33-3----------------- 
e:------11-1-55-5-11-1----------------- 
 
E:------------------------------------- 
B:------------------------------------- 
G:-55-5-------------------------------- 
D:-55-5-33-3-77-7-<3-5-7>-------------- 
A:-33-3-33-3-77-7-<3-5-7>-------------- 
e:------11-1-55-5-<1-3-5>-------------- 
 
Verse: Lead Guitar-Play 4 times (1:16)-(1:33) 
E:-8---10-8--12-8---8---10-8-10--8----- 
B:---8----------------8---------------- 
G:------------------------------------- 
D:------------------------------------- 
A:------------------------------------- 
e:------------------------------------- 
 
Pre-Chorus: Rhythm Guitar-Play 1 time (1:33)-(1:50) 
E:------------------------------------- 
B:------------------------------------- 
G:-22222222-55555555------------------- 
D:-22222222-55555555-3333333333333333-- 
A:-00000000-33333333-3333333333333333-- 
e:-------------------1111111111111111-- 
 
E:------------------------------------- 
B:------------------------------------- 
G:-22222222-55555555------------------- 
D:-22222222-55555555-2222222222222222-- 
A:-00000000-33333333-2222222222222222-- 
e:-------------------0000000000000000-- 
 
Pre-Chorus: Lead Guitar-Play 1 time (1:33)-(1:50) 
E:------------------------------------- 
B:------------------------------------- 
G:-22222222-55555555------------------- 
D:-22222222-55555555-3333333333333333-- 
A:-00000000-33333333-3333333333333333-- 
e:-------------------1111111111111111-- 
 
E:------------------------------------- 
B:------------------------------------- 
G:-22222222-55555555-----77-55-33------ 
D:-22222222-55555555-----55-33-11-22--- 
A:-00000000-33333333-----55-33-11-00--- 
e:--------------------------------00--- 
 
Chorus: Rhythm Guitar & Lead Guitar-Play 1 time (1:50)-(2:06) 
E:------------------------------------- 
B:------------------------------------- 
G:-5555-------------------------------- 
D:-5555-3333-7777-33/5----------------- 
A:-3333-3333-7777-33/5----------------- 
e:------1111-5555-11/3----------------- 
 
E:------------------------------------- 
B:------------------------------------- 
G:-5555-------------------------------- 
D:-5555-3333-7777-33/5----------------- 
A:-3333-3333-7777-33/5----------------- 
e:------1111-5555-11/3----------------- 
 
E:------------------------------------- 
B:------------------------------------- 
G:-5555-------------------------------- 
D:-5555-3333-7777-33/5----------------- 
A:-3333-3333-7777-33/5----------------- 
e:------1111-5555-11/3----------------- 
 
E:------------------------------------- 
B:------------------------------------- 
G:-5555-------------------------------- 
D:-5555-3333-7777-33333333------------- 
A:-3333-3333-7777-33333333------------- 
e:------1111-5555-11111111------------- 
 
Solo: Rhythm Guitar-Play 4 times (2:06)-(2:24) 
E:------------------------------------- 
B:------------------------------------- 
G:-5555-------------------------------- 
D:-5555-3333-7777-33/5----------------- 
A:-3333-3333-7777-33/5----------------- 
e:------1111-5555-11/3----------------- 
 
Solo: Lead Guitar-Play 1 time (2:06)-(2:24) 
E:---3-1--1-0--0---0------------------- 
B:--------------1-3-3-1---------------- 
G:-55---------------------------------- 
D:-55---33---77------------------------ 
A:-33---33---77------------------------ 
e:------11---55------------------------ 
 
E:---3-1--1-0--0---0------------------- 
B:--------------1-3-3-1---------------- 
G:-55---------------------------------- 
D:-55---33---77------------------------ 
A:-33---33---77------------------------ 
e:------11---55------------------------ 
 
E:---5-3-5-3-5-3-5-8-7-5-3------------- 
B:------------------------5-5-3-3------ 
G:-55----------------------------4-4--- 
D:-55-------------------------------4-2 
A:-33---------------------------------- 
e:------------------------------------- 
 
Interlude Part 1: Rhythm & Lead Guitar-Play 3 times (2:24)-(2:36) 
E:------------------------------------- 
B:------------------------------------- 
G:------------------------------------- 
D:-3-3--5-5--77777777------------------ 
A:-3-3--5-5--55555555------------------ 
e:-1-1--3-3--55555555------------------ 
 
Interlude Part 2: Rhythm Guitar-Play 1 time (2:36)-(2:40) 
E:------------------------------------- 
B:------------------------------------- 
G:------------------------------------- 
D:-3333333333333333-------------------- 
A:-3333333333333333-------------------- 
e:-1111111111111111-------------------- 
 
Interude Part 2: Lead Guitar-Play 1 time (2:38)-(2:40) 
E:------------------------------------- 
B:------------------------------------- 
G:-77-55-33---------------------------- 
D:-55-33-11-22------------------------- 
A:-55-33-11-00------------------------- 
e:----------00------------------------- 
 
Interlude Part 3: Rhythm Guitar-Play 2 times (2:40)-(2:49)  
E:------------------------------------- 
B:------------------------------------- 
G:------------------------------------- 
D:-----5------------------------------- 
A:-3-3---------3-------7-------3-0----- 
e:-------0-1-1---0-5-5---0-1-1--------- 
 
Outro Part 1: Rhythm Guitar-Play 1 time (2:49)-(3:00) 
E:------------------------------------- 
B:------------------------------------- 
G:-5555-------------------------------- 
D:-5555-3333-7777-33/5----------------- 
A:-3333-3333-7777-33/5----------------- 
e:------1111-5555-11/3----------------- 
 
E:------------------------------------- 
B:------------------------------------- 
G:-5555-------------------------------- 
D:-5555-3333-7777-3333333333333333----- 
A:-3333-3333-7777-3333333333333333----- 
e:------1111-5555-1111111111111111----- 
 
Outro Part 1: Lead Guitar-Play 1 time (2:58)-(3:00) 
E:-5-3-5-8-7-5-3-5-3------------------- 
B:------------------------------------- 
G:------------------------------------- 
D:------------------------------------- 
A:------------------------------------- 
e:------------------------------------- 
 
Outro Part 2: Rhythm Guitar-Play 3 times (3:00)-(3:12) 
E:------------------------------------- 
B:------------------------------------- 
G:-5555-------------------------------- 
D:-5555-3333-7777-33/5----------------- 
A:-3333-3333-7777-33/5----------------- 
e:------1111-5555-11/3----------------- 
 
Outro Part 2: Lead Guitar- Play 3 times (3:02)-(3:14) 
E:-16-14-13---18-16-15----------------- 
B:------------------------------------- 
G:------------------------------------- 
D:------------------------------------- 
A:------------------------------------- 
e:------------------------------------- 
 
Outro Part 3: Rhythm Guitar-Play 1 time (Let last chord ring until 3:32) (3:12)-(3:19) 
E:------------------------------------- 
B:------------------------------------- 
G:-5555-------------------------------- 
D:-5555-3333-7777-7777777777777777--3-- 
A:-3333-3333-7777-7777777777777777--3-- 
e:------1111-5555-5555555555555555--1-- 
 
Outro Part 3: lead Guitar-Play 1 time (Hit last note at 3:23) (3:14)-(3:19) 
E:-18-18-16-16-15-15-13-13-12-12-9-9-8- 
B:------------------------------------- 
G:------------------------------------- 
D:------------------------------------- 
A:------------------------------------- 
e:------------------------------------- 
 
E:-8----------------------------------- 
B:------------------------------------- 
G:------------------------------------- 
D:--------3---------------------------- 
A:------------------------------------- 
e:------------------------------------- 
--------------------------------------------------------------------------------------- 
05. THE STORY OF MY OLD MAN 
standard tuning 
 
Intro: 
e----------- 
B----------- 
G-4--------- 
D-x--------- (repeat) 
A-2--------- 
E-----------  
 
Verse: 
e------------------- 
B------------------- 
G-4(4)-------------- NOTE: after first time play note in brackets. 
D-x(4)x10-2----4---- 
A-2(2)----2-x5-4-x5- 
E---------0----2---- 
 
Chorus Guitar 1: 
e----------------- 
B----------------- 
G-8----6----4----- 
D-x-x5-x-x5-x-x10- 
A-6----4----2----- 
E----------------- 
 
Chorus Guitar 2: Same timing as guitar 1 except use these chords 
e---------- 
B---------- 
G---------- 
D-6-4-2---- 
A-6-4-2---- 
E-4-2-0---- 
 
Bridge: 
e--------------- 
B---4----4---4-- 
G--4-4--4-4-4-4- 
D--------------- 
A-2------------- 
E-------4--0---- 
 
Outro: 
e---------------- 
B---------------- 
G-4-------------- 
D-4-x3-6----2---- Last time round play the last chord (E5)once 
A-2----6-x3-2-x6- 
E------4----0---- 
--------------------------------------------------------------------------------------- 
6. Girls & Boys 
 
Although it's not written that way, it's tuned to eb 
 
Intro/verse: guitar 1   
E-----------0--------------0------------  
B-----2-----2--------------2------------  
G---2-----2---------2-------------------  
D-----------------2------2--------------  
A--0----2-------0------2----------------  
E---------------------------------------  
 
Verse: guitar 2 
E----------12------------12---------------------  
B-14-12-10------14-12-10------------------------  
G-----------------------------------------------  
D-----------------------------------------------  
A-----------------------------------------------  
E-----------------------------------------------  
 
Chorus: gtr. 1 
E----------------------------------------  
B----------------------------------------  
G---9-9-9--11-11-11----------------------  
D--------------------7-7-7---------------  
A---7-7-7--9--9--9---7-7-7---------------  
E--------------------5-5-5---------------  
 
Chorus: gtr. 2 
E-----------------------------------  
B-----------------------------------  
G---9-9-9-9-9-9---------------------  
D---9-9-9-9-9-9-7-7-7---------------  
A---7-7-7-6-6-6-7-7-7---------------  
E---------------5-5-5--------------- 
 
Verse: guitar 1 
E-----------0--------------0----------  
B-----2-----2--------------2----------  
G---2-----2---------2-----------------  
D-----------------2------2------------  
A--0----2-------0------2-------------- 
E-------------------------------------  
 
Verse: gtr. 2  
E----------12------------12---------------------  
B-14-12-10------14-12-10------------------------  
G-----------------------------------------------  
D-----------------------------------------------  
A-----------------------------------------------  
E-----------------------------------------------  
 
Chorus: gtr.1  
E---------------------------------------  
B---------------------------------------  
G---9-9-9--11-11-11---------------------  
D--------------------7-7-7--------------  
A---7-7-7--9--9--9---7-7-7--------------  
E--------------------5-5-5--------------  
 
Chorus: gtr. 2  
E----------------------------------------  
B----------------------------------------  
G---9-9-9-9-9-9--------------------------  
D---9-9-9-9-9-9-7-7-7--------------------  
A---7-7-7-6-6-6-7-7-7--------------------  
E---------------5-5-5--------------------  
 
1st Bridge "And these boys like these girls..": both grt 1 and 2  
E--------------------------------------  
B--------------------------------------  
G---9-9-9-9-9-9------------------------  
D---9-9-9-9-9-9-7-7-7------------------  
A---7-7-7-6-6-6-7-7-7------------------  
E---------------5-5-5------------------  
 
2nd Bridge: gtr. 1 & 2 X 4   both guitars {play this then the one plays 
the high part 
E---------------------------------------  
B---------------------------------------  
G---11-13-9-9-9-13-11-9-9-9-------------  
D---------------------------------------  
A---9--11-7-7-7-11-9--7-7-7-------------  
E---------------------------------------  
 
E------------------------------------  
B------------------------------------  
G--11-11-11-11-----------------------  
D------------------------------------  
A--9--9--9--9------------------------  
E-------------------------------------  
 
2nd Bridge: gtr. 1 (while gtr 1 plays gtr. 2 plays bridge 1) 
E-----7-7-7-7-7-7-9-9-7-7-7-7-7--------  
B-----5-5-5-5-5-5-5-5-5-5-5-5-5-------- 
G--------------------------------------  
D--------------------------------------  
A-------------------------------------- 
E--------------------------------------  
 
E--7-7-7-7--9-9-9-9-9--9--9--9--12-12-12-12-  
B--5-5-5-5--7-7-7-7-11-11-11-11-10-10-10-10-  
G-------------------------------------------  
D-------------------------------------------  
A-------------------------------------------  
E-------------------------------------------  
 
Chorus: both guitars  
E-------------------------------------  
B------------------------------------  
G---9-9-9-9-9-9----------------------  
D---9-9-9-9-9-9-7-7-7----------------  
A---7-7-7-6-6-6-7-7-7----------------  
E---------------5-5-5---------------- 
 
Outro: "All of these boys yeh n all of these girls..." guitar 1  
E-----------0--------------0-----------  
B-----2-----2--------------2-----------  
G---2-----2---------2------------------  
D-----------------2------2-------------  
A--0----2-------0------2---------------  
E--------------------------------------  
 
Outro: guitar 2  
E----------12------------12------------  
B-14-12-10------14-12-10--------------- 
G--------------------------------------  
D--------------------------------------  
A--------------------------------------  
E-------------------------------------- 
--------------------------------------------------------------------------------------- 
07. MY BLOODY VALENTINE 
 
 
intro riff 
e|---------------5---------------------------------------------------------- 
B|---------------6---------------------------------------------------------- 
G|-------7-------7---------------------------------------------------------- 
D|-7-2-4-7-7-2-4-7---------------------------------------------------------- 
A|-7-2-4-5-7-2-4-5---------------------------------------------------------- 
E|-5-0-2---5-0-2------------------------------------------------------------ 
 
verse riff- 2x 
e|-------------------------------------------------------------------------- 
B|-------------------------------------------------------------------------- 
G|-------------------------------------7777777777--------------------------- 
D|-77777-22222-77777-22222-77777-22222-7777777777--------------------------- 
A|-77777-22222-77777-22222-77777-22222-5555555555--------------------------- 
E|-55555-00000-55555-00000-55555-00000-------------------------------------- 
 
pre-Chorus riff- 2x  
e|-------------------------------------------------------------------------- 
B|-------------------------------------------------------------------------- 
G|-----------7-7-7-7-7-------------7777777777------------------------------- 
D|-4-4-4-4-4-7-7-7-7-7-44444-22222-7777777777------------------------------- 
A|-4-4-4-4-4-5-5-5-5-5-44444-22222-5555555555------------------------------- 
E|-2-2-2-2-2-----------22222-00000------------------------------------------ 
P.M                    ....  ....  
 
Chorus riff- 4x 
e|-------------------------------------------------------------------------- 
B|-------------------------------------------------------------------------- 
G|-------------------77777-------------------------------------------------- 
D|-77777-22222-44444-77777-------------------------------------------------- 
A|-77777-22222-44444-55555-------------------------------------------------- 
E|-55555-00000-22222-------------------------------------------------------- 
 
bridge riff (played with bass, but this it for guitar) 
e|-------------------------------------------------------------------------- 
B|-------------------------------------------------------------------------- 
G|---------------------------------------------77--------------------------- 
D|-7-2-4-4-7-2-4-4-7-2-4-4-7-2-4-4-7-2-4-4-7-2-77--------------------------- 
A|-7-2-4-4-7-2-4-4-7-2-4-4-7-2-4-4-7-2-4-4-7-2-55--------------------------- 
E|-5-0-2-2-5-0-2-2-5-0-2-2-5-0-2-2-5-0-2-2-5-0------------------------------ 
 
 
song order: 
 
intro 
verse 
pre-Chorus 
Chorus 
verse 
pre-Chorus 
Chorus 
bridge 
Chorus 
outro (orchestra) 
--------------------------------------------------------------------------------------- 
08. HOLD ON 
 
Altough it's not written that way, it's tuned to eb. 
 
Intro/Verses 
 
e|---------------------------------------------------------------------------| 
B|------4-----4-----4-7-6-4-6------------------------------------------------| 
G|-----6-6---6-6---6-6-------------------------------------------------------| 
D|----6---6-6---6-6----------------------------------------------------------| 
A|---4-----4-----4-----------------------------------------------------------| 
E|---------------------------------------------------------------------------| 
 
PREChorus  
 "But we all bleed the same way as you do..." 
e|---------------------------------------------------------------------------| 
B|-------------------------------------------4-7-6-4-6-----------------------| 
G|---------------------------------------6----6------------------------------| 
D|--6---------------------4--------------6-----------------------------------| 
A|--6---------------------4--------------4-----------------------------------| 
E|--4---------------------2--------------------------------------------------| 
 
   "And we all have the same things to go through..." 
                                                    (palm mute)   
e|--------------------------------------------|------------------------------| 
B|--------------------------------------------|------------------------------| 
G|--------------------------------------------|------------------------------| 
D|-----6------------------4-------------------|--4-4-4-4-4-4-4-4-4-4-4-------| 
A|-----6------------------4-------------------|--4-4-4-4-4-4-4-4-4-4-4-------| 
E|-----4------------------2-------------------|--2-2-2-2-2-2-2-2-2-2-2-------| 
 
 Chorus 
     "Hold on...if you feel like letting go" 
e|---------------------------------------------------------------------------| 
B|---------------------------------------------------------------------------| 
G|----6----------------------------------------------------------------------| 
D|----6-----6-----------8----------------4-----------------------------------| 
A|----4-----6-----------8----------------4-----------------------------------| 
E|----------4-----------6----------------2-----------------------------------| 
 
     "Hold on...it gets better than you know" 
 
e|---------------------------------------------------------------------------| 
B|---------------------------------------------------------------------------| 
G|----6----------------------------------------------------------------------| 
D|----6-----6-----------8------------3---4-----------------------------------| 
A|----4-----6-----------8------------3---4-----------------------------------| 
E|----------4-----------6------------1---2-----------------------------------| 
 
  -VERSES- 
 
  -PREChorus- 
 
  -Chorus- 
 
 
  Don't stop looking you're one step closer,Don't stop searching it's not over 
                  						 
e|---------------------------------------------------------------------------| 
B|---------------------------------------------------------------------------| 
G|----6----------------------------------------------------------------------| 
D|----6-----------------6--------------------8--------------------4----------| 
A|----4-----------------6--------------------8--------------------4----------| 
E|----------------------4--------------------6--------------------2----------| 
 
   Hold on... 
e|---------------------------------------------------------------------------| 
B|---------------------------------------------------------------------------| 
G|----6----------------------------------------------------------------------| 
D|----6-----6-----------8------------3--4---------8----3--4------------------| 
A|----4-----6-----------8------------3--4---------8----3--4------------------| 
E|----------4-----------6------------1--2---------6----1--2------------------| 
 
BRIDGE 
				 (not sure of picking) 
e|-----4-------------4----------|----------------------|  --------------------| 
B|-----4-------------4----------|------4---4--4--4-----|  ----4---4---4-------| 
G|-----6-------------6----------|-----6---6--6--6------|  ---6---6---6--------| 
D|-----6------3------6------3---|----6---6--6--6-----3-|x3--6---6---6----3--4-| 
A|-----4------3------4------3---|--------------------3-|  ---------------3--4-| 
E|------------1-------------1---|--------------------1-|  ---------------1--2-| 
 
 Chorus 
e|---------------------------------------------------------------------------| 
B|---------------------------------------------------------------------------| 
G|----6----------------------------------------------------------------------| 
D|----6-----6-----------8----------------4-----------------------------------|x6 
A|----4-----6-----------8----------------4-----------------------------------| 
E|----------4-----------6----------------2-----------------------------------| 
 
   Hold on... 
e|---------------------------------------------------------------------------| 
B|---------------------------------------------------------------------------| 
G|----6----------------------------------------------------------------------| 
D|----6-----6-----------8------------3--4---------8----3--4------------------| 
A|----4-----6-----------8------------3--4---------8----3--4------------------| 
E|----------4-----------6------------1--2---------6----1--2------------------| 
--------------------------------------------------------------------------------------- 
09. RIOT GIRL 
 
e standard tuning 
 
Intro: 
Guitar 1: 
E|------------------------------------------------------------------| 
B|------------------------------------------------------------------| 
G|---77-8-1010------------------------------------------------------| 
D|---77-8-1010------------------------------------------------------| 
A|---55-6-8-8-------------------------------------------------------| 
E|------------------------------------------------------------------| 
 
(while Guitar 2 plays) 
E|-------------------------------------------------------------------| 
B|-------------------------------------------------------------------| 
G|------------88888888-1010101010101010-88888888---------------------| 
D|---88888888-88888888--8-8-8-8-8-8-8-8-88888888---------------------| 
A|---88888888-66666666--8-8-8-8-8-8-8-8-66666666---------------------| 
E|---66666666--------------------------------------------------------| 
 
E|-------------------------------------------------------------------| 
B|-------------------------------------------------------------------| 
G|------------88888888-1010101010101010----77-8-1010-----------------| 
D|---88888888-88888888--8-8-8-8-8-8-8-8----77-8-1010-----------------| 
A|---88888888-66666666--8-8-8-8-8-8-8-8----55-6-8-8------------------| 
E|---66666666--------------------------------------------------------| 
 
Guitar 2: 
E|-------------------------------------------------------------------| 
B|---44433333---------44433333---------44433333---------44433333-----| 
G|-----------53-53-53---------53-53-53---------53-53-53--------------| 
D|-------------------------------------------------------------------| 
A|-------------------------------------------------------------------| 
E|-------------------------------------------------------------------| 
 
Verse: 
Guitar 2: 
All Palm Muted 
E|-------------------------------------------------------------------| 
B|-------------------------------------------------------------------| 
G|------------88888888-1010101010101010-88888888---------------------| 
D|---88888888-88888888--8-8-8-8-8-8-8-8-88888888---------------------| 
A|---88888888-66666666--8-8-8-8-8-8-8-8-66666666---------------------| 
E|---66666666--------------------------------------------------------| 
 
E|-------------------------------------------------------------------| 
B|-------------------------------------------------------------------| 
G|------------88888888-1010101010101010------------------------------| 
D|---88888888-88888888--8-8-8-8-8-8-8-8------------------------------| 
A|---88888888-66666666--8-8-8-8-8-8-8-8------------------------------| 
E|---66666666--------------------------------------------------------| 
 
Guitar 1 : 
No Palm Mute 
E|------------------------------------------------------------------| 
B|------------------------------------------------------------------| 
G|---77-8-1010------------------------------------------------------| 
D|---77-8-1010------------------------------------------------------| 
A|---55-6-8-8-------------------------------------------------------| 
E|------------------------------------------------------------------| 
 
Pre-Chorus: 
Both Guitars 
E|-------------------------------------------------------------------| 
B|-------------------------------------------------------------------| 
G|------------88888888-1010101010101010-88888888---------------------| 
D|---88888888-88888888--8-8-8-8-8-8-8-8-88888888---------------------| 
A|---88888888-66666666--8-8-8-8-8-8-8-8-66666666---------------------| 
E|---66666666--------------------------------------------------------| 
 
E|-------------------------------------------------------------------| 
B|-------------------------------------------------------------------| 
G|------------88888888-1010101010101010-88888------------------------| 
D|---88888888-88888888-1010101010101010-88888------------------------| 
A|---88888888-66666666--8-8-8-8-8-8-8-8-66666------------------------| 
E|---66666666--------------------------------------------------------| 
 
Chorus : 
Guitar 1 : 
E|-------------------------------------------------------------------| 
B|-------------------------------------------------------------------| 
G|---------------------88888888-7777-5555----------------------------| 
D|---88888888-33333333-88888888-7777-5555----------------------------| 
A|---88888888-33333333-66666666-5555-3333----------------------------| 
E|---66666666-11111111-----------------------------------------------| 
                                             
E|-------------------------------------------------------------------| 
B|-------------------------------------------------------------------| 
G|---------------------88888888-7777-5555----------------------------| 
D|---88888888-33333333-88888888-7777-5555----------------------------| 
A|---88888888-33333333-66666666-5555-3333----------------------------| 
E|---66666666-11111111-----------------------------------------------| 
 
Verse 2: 
Guitar 1: 
All Palm Muted 
E|-------------------------------------------------------------------| 
B|-------------------------------------------------------------------| 
G|-------------------------------------------------------------------| 
D|-----3---3--3----5---5--5---7---7--7-----5---5--5------------------| 
A|---11--11--1--33---33--3--55--55--5---33---33--3-------------------| 
E|-------------------------------------------------------------------| 
 
E|------------------------------------------------------------------| 
B|------------------------------------------------------------------| 
G|------------------------------------------------------------------| 
D|-----3---3--3----5---5--5---7---7--7------------------------------| 
A|---11--11--1--33---33--3--55--55--5-------------------------------| 
E|------------------------------------------------------------------| 
 
Guitar 2: 
No Palm Mute 
E|------------------------------------------------------------------| 
B|------------------------------------------------------------------| 
G|---77-8-1010------------------------------------------------------| 
D|---77-8-1010------------------------------------------------------| 
A|---55-6-8-8-------------------------------------------------------| 
E|------------------------------------------------------------------| 
 
Pre-Chorus: 
Both Guitars 
E|-------------------------------------------------------------------| 
B|-------------------------------------------------------------------| 
G|------------88888888-1010101010101010-88888888---------------------| 
D|---88888888-88888888--8-8-8-8-8-8-8-8-88888888---------------------| 
A|---88888888-66666666--8-8-8-8-8-8-8-8-66666666---------------------| 
E|---66666666--------------------------------------------------------| 
 
 
E|-------------------------------------------------------------------| 
B|-------------------------------------------------------------------| 
G|------------88888888-1010101010101010-8----------------------------| 
D|---88888888-88888888-1010101010101010-8----------------------------| 
A|---88888888-66666666--8-8-8-8-8-8-8-8-6----------------------------| 
E|---66666666--------------------------------------------------------| 
 
Chorus : 
Both Guitars 
E|--------------------------------------------------------------------| 
B|--------------------------------------------------------------------| 
G|---------------------88888888-7777-5555-----------------------------| 
D|---88888888-33333333-88888888-7777-5555-----------------------------| 
A|---88888888-33333333-66666666-5555-3333-----------------------------| 
E|---66666666-11111111------------------------------------------------| 
                                             
E|-------------------------------------------------------------------| 
B|-------------------------------------------------------------------| 
G|---------------------88888888-7777-5555----------------------------| 
D|---88888888-33333333-88888888-7777-5555----------------------------| 
A|---88888888-33333333-66666666-5555-3333----------------------------| 
E|---66666666-11111111-----------------------------------------------| 
 
Riff A : 
Guitar 2: 
E|-------------------------------------------------------------------| 
B|---44433333---------44433333---------44433333---------44433333-----| 
G|-----------53-53-53---------53-53-53---------53-53-53--------------| 
D|-------------------------------------------------------------------| 
A|-------------------------------------------------------------------| 
E|-------------------------------------------------------------------| 
Continued? 
E|------------------------------------------------------------------| 
B|---4-88-66-44-33--------------------------------------------------| 
G|------------------------------------------------------------------| 
D|------------------------------------------------------------------| 
A|------------------------------------------------------------------| 
E|------------------------------------------------------------------| 
 
Guitar 1: 
E|-------------------------------------------------------------------| 
B|-------------------------------------------------------------------| 
G|------------88888888-1010101010101010-88888888---------------------| 
D|---88888888-88888888--8-8-8-8-8-8-8-8-88888888---------------------| 
A|---88888888-66666666--8-8-8-8-8-8-8-8-66666666---------------------| 
E|---66666666--------------------------------------------------------| 
 
E|-------------------------------------------------------------------| 
B|-------------------------------------------------------------------| 
G|------------88888888-1010101010101010------------------------------| 
D|---88888888-88888888--8-8-8-8-8-8-8-8------------------------------| 
A|---88888888-66666666--8-8-8-8-8-8-8-8------------------------------| 
E|---66666666--------------------------------------------------------| 
 
Verse 3: 
Guitar 1: 
X4 
E|------------------------------------------------------------------| 
B|------------------------------------------------------------------| 
G|--7------------5------------3-------------------------------------| 
D|--7------------5------------3-------------------------------------| 
A|--5------------3------------1-------------------------------------| 
E|------------------------------------------------------------------| 
 
Guitar 2: 
How ever many times needed 
E|------------------------------------------------------------------| 
B|---4--------------------------------------------------------------| 
G|----3p0-3---------------------------------------------------------| 
D|------------------------------------------------------------------| 
A|------------------------------------------------------------------| 
E|------------------------------------------------------------------| 
 
Last Chorus: 
Both Guitars 
E|-------------------------------------------------------------------| 
B|-------------------------------------------------------------------| 
G|---------------------88888888-7777-5555----------------------------| 
D|---88888888-33333333-88888888-7777-5555----------------------------| 
A|---88888888-33333333-66666666-5555-3333----------------------------| 
E|---66666666-11111111-----------------------------------------------| 
                                             
 
E|-------------------------------------------------------------------| 
B|-------------------------------------------------------------------| 
G|---------------------88888888-7777-5555----------------------------| 
D|---88888888-33333333-88888888-7777-5555----------------------------| 
A|---88888888-33333333-66666666-5555-3333----------------------------| 
E|---66666666-11111111-----------------------------------------------| 
 
E|-------------------------------------------------------------------| 
B|-------------------------------------------------------------------| 
G|------------88888888-1010101010101010-88888888---------------------| 
D|---88888888-88888888--8-8-8-8-8-8-8-8-88888888---------------------| 
A|---88888888-66666666--8-8-8-8-8-8-8-8-66666666---------------------| 
E|---66666666--------------------------------------------------------| 
 
Part 2: 
Guitar 1: 
X2 
E|-------------------------------------------------------------------| 
B|-------------------------------------------------------------------| 
G|------------88888888-1010101010101010-88888888---------------------| 
D|---88888888-88888888--8-8-8-8-8-8-8-8-88888888---------------------| 
A|---88888888-66666666--8-8-8-8-8-8-8-8-66666666---------------------| 
E|---66666666--------------------------------------------------------| 
 
Guitar 2: 
E|--------------------------------------------------------------------| 
B|---44433333---------44433333---------444333111-444333111-431-431----| 
G|-----------53-53-53---------53-53-53------------------------3---3---| 
D|--------------------------------------------------------------------| 
A|--------------------------------------------------------------------| 
E|--------------------------------------------------------------------| 
 
E|------------------------------------------------------------------| 
B|---431--431-------------------------------------------------------| 
G|------3----3------------------------------------------------------| 
D|------------------------------------------------------------------| 
A|------------------------------------------------------------------| 
E|------------------------------------------------------------------| 
 
Guitar 1: 
End with 
E|------------------------------------------------------------------| 
B|------------------------------------------------------------------| 
G|---33333----------------------------------------------------------| 
D|---33333----------------------------------------------------------| 
A|---11111----------------------------------------------------------| 
E|------------------------------------------------------------------| 
--------------------------------------------------------------------------------------- 
10. SAY ANYTHING 
 
Verse: Guitar 1 
 B        E    
---------------------------------------------------------------------------- 
------4--------------------------------------------------------------------- 
--------------4------------------------------------------------------------- 
----4----------------------------------------------------------------------- 
-2----------2--------------------------------------------------------------- 
---------0------------------------------------------------------------------ 
                                                                               
Verse: Guitar 2 
 B                E    
---------------------------------------------------------------------------- 
---------------------------------------------------------------------------- 
-4-4-4-4-4-4-4-4------------------------------------------------------------ 
-4-4-4-4-4-4-4-4--2-2-2-2-2-2-2-2------------------------------------------- 
-2-2-2-2-2-2-2-2--2-2-2-2-2-2-2-2------------------------------------------- 
------------------0-0-0-0-0-0-0-0------------------------------------------- 
                                                                               
Pre Chorus:  
 G#            F#          E  
---------------------------------------------------------------------------- 
---------------------------------------------------------------------------- 
---------------------------------------------------------------------------- 
-6-6-6-6-6-6--4-4-4-4-4-4--2-2-2-2-2-2-2-2-2-2-2---------------------------- 
-6-6-6-6-6-6--4-4-4-4-4-4--2-2-2-2-2-2-2-2-2-2-2---------------------------- 
-4-4-4-4-4-4--2-2-2-2-2-2--0-0-0-0-0-0-0-0-0-0-0---------------------------- 
                                                                               
Chorus: 
 B            F#           E 
---------------------------------------------------------------------------- 
---------------------------------------------------------------------------- 
-4-4-4-4-4-4---------------------------------------------------------------- 
-4-4-4-4-4-4--4-4-4-4-4-4--2-2-2-2-2-2-2-2-2-2-2---------------------------- 
-2-2-2-2-2-2--4-4-4-4-4-4--2-2-2-2-2-2-2-2-2-2-2---------------------------- 
--------------2-2-2-2-2-2--0-0-0-0-0-0-0-0-0-0-0---------------------------- 
                                                                               
Little lead part into 2nd Verse: 
 
---------------------------------------------------------------------------- 
---------------------------------------------------------------------------- 
-4-3-1---------------------------------------------------------------------- 
-------4-2-1---------------------------------------------------------------- 
-------------4-6/8\6-2------------------------------------------------------ 
---------------------------------------------------------------------------- 
 
11. THE DAY THAT I DIE 
 
Tuned Down Half a step 
Intro(x1) guitar 1 
  eb-----------------------------------------------------------------------/2- 
  Bb----------------------------------------------------------------3-2----/2- 
  Gb--------------------------------------------------2-----2-----2--------/2- 
  Db-----------------------------------------------2h4---2h4--2h4-------------- 
  Ab--2/4~-4-2-4-2~-2/5-4-0-----0-2-0-4-4-5-4-2-------------------------------- 
  Eb------------------------2-0------------------------------------------------ 
 
 
verse(2x) 
  "One day......I woke up knowing...today is the day.......Die..." 
eb---5----------7-------------------5---------------------5-------------- 
Bb---5----------7-------------------5---------------------5-------------- 
Gb---6----------9-------------------7---------------------6-------------- 
Db---7----------9-------------------7---------------------7-------------- 
Ab---7----------7-------------------5---------------------7-------------- 
Eb---5----------7-------------------5---------------------5-------------- 
 
  "I called my mother......begged her not to cry" 
eb--4----------------------5-------------------- 
Bb--4----------------------5-------------------- 
Gb--6----------------------7-------------------- 
Db--6----------------------7-------------------- 
Ab--4----------------------5-------------------- 
Eb--4----------------------5-------------------- 
 
Verse(X1) 
 
Pre-Chorus(X2) 
 " You know the happiest.....life....." 
eb-7-------------------------5--------- 
Bb-7-------------------------5--------- 
Gb-9-------------------------7--------- 
Eb-9-------------------------7--------- 
Db-7-------------------------5--------- 
Ab-7-------------------------5--------- 
 
 
Chorus(x1) 
 "Can You feel....cold tonight.....It sets in....But its alright" 
eb--5-------------7----------------2-------------5-------------- 
Bb--5-------------7----------------2-------------5-------------- 
Gb--6-------------9----------------4-------------7-------------- 
Db--7-------------9----------------4-------------7-------------- 
Ab--7-------------7----------------2-------------5-------------- 
Eb--5-------------7----------------2-------------5-------------- 
 
 
 "darkness falls.....letting go....all alone but.." 
eb-5-----------------7-------------5-------------- 
Bb-5-----------------7-------------5-------------- 
Gb-6-----------------9-------------7-------------- 
Db-7-----------------9-------------7-------------- 
Ab-7-----------------7-------------5-------------- 
Eb-5-----------------7-------------5-------------- 
 
Verse(X2) 
Guitar 2 1st time(during verse) 
eb-------------------------------------- 
Bb-------------------------------------- 
Gb---14-16-14-16b-16b-14---------------- 
Db-------------------------------------- 
Ab-------------------------------------- 
Eb-------------------------------------- 
 
Guitar 2 2nd time 
eb-------------------------------------- 
Bb-------------------------------------- 
Gb---18-18-18-16-14-13~13/14-11----------- 
Db-------------------------------------- 
Ab-------------------------------------- 
Eb-------------------------------------- 
 
Pre-Chorus(X2) 
 
Chorus(x1) 
 
 
Solo(x1) 
eb------------------------------------------------------------------------ 
Bb------------------------------------------------------------------------ 
Gb--------------------2-----2--------------------------------------------- 
Db----------------2h4---2h4----2h4---------------------------------------- 
Ab--9/4-4-4-2-4-2-----------------------0-2-0-4-4-4-5-4-2-2/5-4-0--------- 
Eb----------------------------------2-0------------------------------2-1-- 
 
Pre-Chorus(X2) 
Chorus(X4) 
 
End 
eb------5/-------------------------------- 
Bb------5/-------------------------------- 
Gb------6/-------------------------------- 
Db------7/-------------------------------- 
Ab------7/-------------------------------- 
Eb------5/-------------------------------- 
 
12. THE YOUNG AND THE HOPELESS 
 
Intro/verse1: 
G1 
eb-----------| 
Bb-----------| 
Gb-----6-----| 
Db--2--6--7--| 
Ab--2--4--7--| 
Eb--0-----5--| 
 
The kinda clean riff play from "hard days..." 
 
G2 
eb--4-5-4-5-7-5-4-5-4-| 
Bb--------------------| 
Gb--------------------|**you play this over the previous progression 
Db--------------------| 
Ab--------------------| 
Eb--------------------| you can dress it up with hammers and pulls 
play that until "i know only god can judge me" 
 
preChorus(G1 and G2): 
eb--------------| 
Bb--------------| 
Gb--6-----9-----| 
Db--6--7--9--9--| 
Ab--4--7--7--9--| 
Eb-----5-----7--| 
 
Chorus(G1 and G2): 
eb--------------|-----| 
Bb--------------|-----| 
Gb-----6--------|--9--| 
Db--2--6--7--9--|--9--| 
Ab--2--4--7--9--|--7--| 
Eb--0-----5--7--|-----| 
 
Verse2: 
G1 
eb-----------| 
Bb-----------| 
Gb-----6-----| 
Db--2--6--7--| 
Ab--2--4--7--| 
Eb--0-----5--| 
 
G2 
eb--4-5-4-5-7-5-4-5-4-| 
Bb--------------------| 
Gb--------------------| 
Db--------------------|play until "when i see them on the street they 
Ab--------------------| 
Eb--------------------|                   got nothin to say" 
 
preChorus(G1 and G2): 
eb--------------| 
Bb--------------| 
Gb--6-----9-----| 
Db--6--7--9--9--| 
Ab--4--7--7--9--| 
Eb-----5-----7--| 
 
Chorus(G1 and G2): 
eb--------------|-----| 
Bb--------------|-----| 
Gb-----6--------|--9--| 
Db--2--6--7--9--|--9--| 
Ab--2--4--7--9--|--7--| 
Eb--0-----5--7--|-----| 
 
bridge thing: 
G1: 
eb-----------| 
Bb-----------| 
Gb--6--5--4--| 
Db--6--5--4--| 
Ab--4--3--2--| 
Eb-----------| 
 
G2: 
eb--9--8--7--| 
Bb-----------| 
Gb-----------| 
Db-----------| 
Ab-----------| 
Eb-----------| 
 
eb--------------|-----| 
Bb--------------|-----| 
Gb-----6--------|--9--| 
Db--2--6--7--9--|--9--| 
Ab--2--4--7--9--|--7--| 
Eb--0-----5--7--|-----| 
 
eb------------| 
Bb------------| 
Gb--9---------| 
Db--9--10--9--| 
Ab--7--10--9--| 
Eb------8--7--| 
 
eb------------| 
Bb------------| 
Gb--9---------| 
Db--9--10--2--| 
Ab--7--10--2--| 
Eb------8--0--| 
--------------------------------------------------------------------------------------- 
13. EMOTIONLESS 
 
Em7add9- xx2032 
D- xx0232 
Dsus2- xx0230 
C2- x32033 
G- 320033 
Am7- x02013 
Cm- x35543 
Gmaj7- 3x0032  
G7/F- 1x0001 
Bm7-x24232 
* Indicates pull off from D to Dsus 
 
Verse 1: 
     Em7add9    D* Dsus               C2 
Hey dad,                I?m  writing  to  you 
Em7add9   D* Dsus          C2 
Not  to   tell  you  that  I  still  hate  you 
Em7add9   D* Dsus             C2 
Just  to  ask  you  how  you  feel   
              C2 
And  how  we  fell  apart 
           C2          (stop) 
How  this  fell  apart. 
 
          Em7add9  D* Dsus               C2 
Are  you  happy    out  there  in  this  great  wide  world 
       Em7add9          D* Dsus      C2 
Do you think about your sons  do you miss  your little girl            
           Em7add9    D* Dsus            C2                     
When  you  lay  your  head  down    how  do  you  sleep  at  night 
         Em7add9  D* Dsus              C2 
Do  you  even     wonder  if  we?re  alright?  
              C2 
But  we?re  alright,     we?re alright 
 
 
Chorus: 
              G 
Its  been  a  long  road  without  you  by  my  side   
C2 
Why  weren?t  you   there  all  the  nights  that  we  cried  
     G 
You  broke  my  mother?s  heart  you  broke  your  children  for  life 
     C2 
Its  not  ok     but  we?re  alright  
     G 
I  remember  the  days  you  were  a  hero  in  my  eyes   
     C2 
But  those  are  just  a  long  lost  memory  of  mine 
          G 
I  spent  so  many  years  learning  how  to  survive 
        C2 
                         
Now I?m writing  just to let  you  know  we?re still alive.  (stop)    
 
 
Verse 2: 
     Em7add9  D* Dsus       C2 
The  days  I  spent  so     cold  so  hungry 
      Em7add9   D* Dsus           C2  
Were  full  of  hate           I  was  so  angry 
     Em7add9     D* Dsus             C2 
The  scars  run  deep  inside  this  tattooed  body 
         Em7add9       D* Dsus       C2  
There?s  things  I?ll  take  to  my  grave 
          C2 
But  I?m  ok                   I?m  okayyy 
 
 
Chorus 
 
 
 
Bridge: 
      Am7 Cm                    G  Gmaj7 
And  sometimes              I  forgive 
         Am7   Cm                 G  G7/F 
Yellin' this  time          I?ll  admit 
          Am7                      Cm 
That  I  miss  you       said  I  miss  yooooouuuu 
 
 
 
Chorus 
 
 
Outro Part: 
      Bm7              Am7 
And  sometimes  I  forgive 
       Bm7               Am7 
And  this  time  I?ll  admit   
          Bm7               Am7                         G  ( stop) 
That  I  miss  you      I  miss  you              Hey  Dad. 
--------------------------------------------------------------------------------------- 
14. MOVING ON 
 
Although it's not written that way, it's tuned to eb 
 
Intro (Distorted) Part 1 
e|------16-16--18-18--16-16--15-15-------------------------------------------| 
B|------15-15--15-15--15-15--15-15-------------------------------------------| 
G|---------------------------------------------------------------------------| 
D|---------------------------------------------------------------------------| 
A|---------------------------------------------------------------------------| 
E|---------------------------------------------------------------------------| 
 
Part 2 
e|---------------------------------------------------------------------------| 
B|---------------------------------------------------------------------------| 
G|---------------------------------------------------------------------------| 
D|-------8--8------------8----8----------------------------------------------| 
A|-------6--6-8-6----6-8-6----6-8-6----6-8-----------------------------------| 
E|------------6-4----4-6--------6-4----4-6-----------------------------------| 
 
Verse (Distorted) 
e|---------------------------------------------------------------------------| 
B|---------------------------------------------------------------------------| 
G|---------------------------------------------------------------------------| 
D|---8-88-8-8-88---5-55-5-5-55-----------------------------------------------| 
A|---6-66-6-6-66---3-33-3-3-33---6-66-6-6-66---88888888----------------------| 
E|-------------------------------8-88-8-8-88---66666666----------------------| 
P.M. * ** * * **   * ** * * **   * ** * * **    
 
Pre-Chorus  
e|---------------------------------------------------------------------------| 
B|---------------------------------------------------------------------------| 
G|---------------------------------------------------------------------------| 
D|---------------8-88-8-8-88-------------------------------------------------| 
A|---6-----8-----6-66-6-6-66-------------------------------------------------| 
E|---4-----6-----------------------------------------------------------------| 
 
e|---------------------------------------------------------------------------| 
B|---------------------------------------------------------------------------| 
G|---------------------------------------------------------------------------| 
D|-------------8888-5555-----------------------------------------------------| 
A|---6666-8888-6666-3333--66666666-8-----------------------------------------| 
E|---4444-6666------------88888888-6-----------------------------------------| 
 
Chorus  
e|---------------------------------------------------------------------------| 
B|---------------------------------------------------------------------------| 
G|---------------------------------------------------------------------------| 
D|---8-88-8-8-8-8------------------8-88-8-8-8-8------------------------------| 
A|---6-66-6-6-6-6-8-6-66-6-6-6-6-8-6-66-6-6-6-6-8-6-66-6-6-6-6-8-------------| 
E|----------------6-4-44-4-4-4-4-6--------------6-4-44-4-4-4-4-6-------------| 
 
Bridge 
e|---------------------------------------------------------------------------| 
B|---------------------------------------------------------------------------| 
G|----------888-----88-------------------------------------------------------| 
D|------888-----888-----88---------------------------------------------------| 
A|--666----------------------------------------------------------------------| 
E|---------------------------------------------------------------------------| 
 
 
Order: 
Intro Part 1: x6 
Intro Part 2: x2 (start after the 2nd time through for part 1... 
                  listen to the song for the exact timing) 
Verse: x2 
Pre-Chorus: x2 
Chorus: x2 
Verse: x2 
Pre-Chorus: x2 
Chorus: x4 
Bridge: x11 
Chorus: x4 
Intro Part 1: x4 \  
Intro Part 2: x2 / same time 
 
 
~~~~~~~~~~~~~~~~~~~~~~~~~~~~~~~~~~~~~~~~~~~~~~~~~~~~~~~~~~~~~~~~~~~~~~~~~~~~ 
 
 
THATS IT! great album. learn to play it, its lots of fun. 
Comments to the next mail: 
[email protected] 
QUE VIVA CIGARRILLO!!!(this is my band of Guatemala!) 
                         
 

	  

Search Paypal
auto scroll beats size up size down change color hide chords drawings
tab show chords e-chords YouTube Clip e-chords hide all tabs e-chords go to top tab