Good Charlotte

home > Good Charlotte

Don't Wanna Stop Tab

Good Charlotte

Difficulty: nolevelnolevel

tuner correct add songbook print version text version save to e-mail
chordsukulelecavacokeyboardtabbassdrumsharmonicsflute Guitar Pro
chords

Don't Wanna Stop

  		Introdução/Refrão

E------------------------------------------------------------------------------
B------------------------------------------------------------------------------
G------------------------------------------------------------------------------
D--5-5-555--9-9-999--10-10-101010-/12------------------------------------------
A--5-5-555--9-9-999--10-10-101010-/12------------------------------------------
E--3-3-333--7-7-777--8--8--8-8-8--/10------------------------------------------

-*O VERSO É TOCADO SÓ NO BAIXO*-
                                                                             
-Pre Refrão-
E------------------------------------------------------------------------------
B------------------------------------------------------------------------------
G--5-5-55-/7-7-77----------4-4-44----------------------------------------------
D--5-5-55-/7-7-77--5-5-55--4-4-44----------------------------------------------
A--3-3-33-/5-5-55--5-5-55--2-2-22----------------------------------------------
E------------------3-3-33------------------------------------------------------

Fim...
	  

Search Paypal
auto scroll beats size up size down change color hide chords drawings
tab show chords e-chords YouTube Clip e-chords hide all tabs e-chords go to top tab