Good Charlotte

home > Good Charlotte

Don't Wanna Stop Bass Tab

Good Charlotte

Difficulty: nolevelnolevel

tuner correct add songbook print version text version save to e-mail
chordsukulelecavacokeyboardtabbassdrumsharmonicsflute Guitar Pro
chords

Don't Wanna Stop

  		


Band: 
 
Tabber: Chris (Canadianpunk67)

(after drum roll)
Intro 
G----------------------------------------------------------------
D---------------------------------------0-0--000-0----------(x2)
A----------------2-2-222-2----3-3-333------------------------
E--3-3-333-3----------------------------------------------------

Verse 1
G----------------------------------------------------------------
D----------------------------------------0--000-00-----------(4x)
A----------------2-2-222-2----3-3-333------------------------
E--3-3-333-3----------------------------------------------------

Chorus part 1  (And I know...)
G----------------------------------------------------------------------
D-------------------0--0--0--0-----------------------------------------
A-----3--3--3--3-------------------------------2--2--2--2--------------
E--------------------------------3--3--3--3----------------------------

G----------------------------------------------------------------------
D---------------0--0--0--0-----------------------------------------0---
A--3--3--3--3----------------------------2--2--2--2----3--3--3--3------
E---------------------------3--3--3--3---------------------------------

Chorus part 2  (Don't wanna stop...)
G-----------------------------------------------------------------------------
D--------------------------------0--------------------------------0--------
A------------2-2-222-2--3-3-333----------------2-2-222-2--3-3-333-----3--2-0-
E-3-3-333-3--------------------------3-3-333-3--------------------------------

Verse 2
G----------------------------------------------------------------
D----------------------------------------0--000-00-----------(4x)
A----------------2-2-222-2----3-3-333------------------------
E--3-3-333-3----------------------------------------------------

Chorus part 1  (And I know...)
G----------------------------------------------------------------------
D--------------------0-0-0-0----------------------------------------
A-----3-3-3-3-----------------------------------2-2-2-2----------
E-----------------------------------3-3-3-3-------------------------

G----------------------------------------------------------------------
D---------------0-0-0-0-------------------------------------0---
A--3-3-3-3----------------------------2-2-2-2---3-3-3-3-------
E---------------------------3-3-3-3---------------------------------

Chorus part 2  (Don't wanna stop...)
G-----------------------------------------------------------------------------
D--------------------------------0--------------------------------0--------
A------------2-2-222-2--3-3-333----------------2-2-222-2--3-3-333-----3--2-0-
E-3-3-333-3--------------------------3-3-333-3--------------------------------

Bridge  (This gone on For Way too Long...)
G------------------------------------------------------------
D------------------------------0-0-0-0--0-0-0-0-------(x4)
A----3-3-3-3----------------------------------------------
E-----------------3-3-3-3---------------------------------

Chorus part 1 (and I know...)
G----------------------------------------------------------------------
D----------0-0-0-0----------------------------0-0-0-0------------------
A-3-3-3-3-------------------2-2-2-2--3-3-3-3-------------------2-2-2-2-
E-------------------3-3-3-3----------------------------3-3-3-3---------

AND I DOOOOOOOOOOOOOOOOOOOOOOOOOOOOOOOOOOOOOOOOOOOOOOOOOOOOOOOOON'T 
G-------------------------------------------------------------------||
D---------------0--0--0--0---0--0--0--0---0--0--0--0---0------------||
A--3--3--3--3-------------------------------------------------------|| WANNA STOP!
E-------------------------------------------------------------------||


The end. Fun Song, actually, once you get the timing down. 

	  

Search Paypal
auto scroll beats size up size down change color hide chords drawings
tab show chords e-chords YouTube Clip e-chords hide all tabs e-chords go to top tab