Good Charlotte

home > Good Charlotte

Day That I Die (acoustic) Tab

Good Charlotte

Difficulty: BeginnerBeginner

tuner correct add songbook print version text version save to e-mail
chordsukulelecavacokeyboardtabbassdrumsharmonicsflute Guitar Pro
chords

Day That I Die (acoustic)

  		 
Intro-Guitarra Solo 
E|-------------------------------------- 
B|-------------------------------------- 
G|-------------------------------------- 
D|-------------------------------------- 
A|-3---3---3-1---1-1-1-4-3-----1----- 
E|-------4----------------------4-1---0-------- 
 
E|-------------------------------------------------- 
B|------------------------------------------------- 
G|------------------------------1------1--------2~- 
D|--------------------------1h3--1h3--1h3----1h31-- 
A|--3--3-4-3-13--1--------------------------------- 
E|------------------------------------------------- 
 
Intro-Guitarra Base 
E|--4---6---4---4-- 
B|--4---8---6---4-- 
G|--5---8---6---5-- 
D|--6---8---6---6-- X2 
A|--6---6---4---6-- 
E|--4-----------4-- 
 
Verso - Guitarra Base 
E|--4---6---4---4-- 
B|--4---8---6---4-- 
G|--5---8---6---5-- 
D|--6---8---6---6-- X2 
A|--6---6---4---6-- 
E|--4-----------4-- 
One Day I woke up, woke up knowing, today is the day I will die 
Cashdog was barking, walked in the park and, enjoyed it one last time 
 
E|-3---3---4---4---------------------------- 
B|-4---4---6---6---------------------------- 
G|-5---5---6---6---------------------------- 
D|-5---5---6---6---------------------------- 
A|-3---3---4---4-------------------------- 
E|---------------------------------------- 
I called my mother, told her I loved her and I begged her not to cry 
 
E|--4---6---4---4-- 
B|--4---8---6---4-- 
G|--5---8---6---5--  
D|--6---8---6---6--  
A|--6---6---4---6--  
E|--4-----------4-- 
I wrote a letter, that said I'd miss her, And I signed that good bye 
(Essa parte só é tocada na primira vez, na segunda pula direto pro pre-refrão) 
 
Pre Refrão-Guitarra Base 
E|---6---4---6---4-------------------------- 
B|---8---6---8---6-------------------------- 
G|---8---6---8---6-------------------------- 
D|---8---6---8---6-------------------------- 
A|---6---4---6---4------------------------ 
E|------------------------------------------- 
You know the happiest day of my life, I swear the happiest day of my life 
 
Chorus-2 Guitarras 
E|--4---6---4---4---4---6---4---4------------- 
B|--4---8---6---4---4---8---6---6------------- 
G|--5---8---6---5---5---8---6---6------------- 
D|--6---8---6---6---6---8---6---6------------- 
A|--6---6---4---6---6---6---4---4------------- 
E|--4-----------4---4---------------------- 
Can you feel the cold tonight, it sets in but, its alright 
Darkness falls I'm letting go, all alone but I feel fine 
 
Verso 2 
(igual o primeiro) 
 
Pre-Refrão 
 
Refrão 
 
Solo-Guitarra Base: 
Igual a Intro pra Base 
 
Solo-Guitrarra Solo 
E|------------------------------------------------- 
B|------------------------------------------------ 
G|----------------------------------------------- 
D|----------------------------------------------- 
A|-33-3-3-1-11-------11-4-3-1-4-3-1--------------- 
E|-----4-----------------------------4--------44-- 
 
E|------------------------------------------------ 
B|------------------------------------------------ 
G|--------------------------1------1---------21~--- 
D|-----------------------1h3--1h3--1h3----1h31----- 
A|-3--3-4-3-1--------------------------------------- 
E|------------------------------------------------- 
 
Pre Chorus X2 
 
Chorus X2 
 
 
_______________________________________________________ 
Contribuição: raphael salles([email protected]) 

	  

Search Paypal
auto scroll beats size up size down change color hide chords drawings
tab show chords e-chords YouTube Clip e-chords hide all tabs e-chords go to top tab