Good Charlotte

home > Good Charlotte

Day That I Die Tab

Good Charlotte

Difficulty: nolevelnolevel

tuner correct add songbook print version text version save to e-mail
chordsukulelecavacokeyboardtabbassdrumsharmonicsflute Guitar Pro
chords

Day That I Die

  		Intro-Lead Guitar
E|--------------------------------------
B|--------------------------------------
G|--------------------------------------
D|--------------------------------------
A|-3---3---3-1---1-1-1-4-3-----1-----
E|-------4----------------------4-1---4--------

E|------------------------------------------------------
B|------------------------------------------------2-1---
G|------------------------------1------1-----1--1-1---
D|--------------------------1h3--1h3--1h3---3-1---
A|--3--3-4-3-1---1-1-1---------------------------
E|-------------------------------------------------

Intro-Rhythm Guitar
E|--4---6---4---4--
B|--4---8---6---4--
G|--5---8---6---5--
D|--6---8---6---6-- X2
A|--6---6---4---6--
E|--4-----------4--

Verse-Rhythm Guitar
E|--4---6---4---4--
B|--4---8---6---4--
G|--5---8---6---5--
D|--6---8---6---6-- X2
A|--6---6---4---6--
E|--4-----------4--
One Day I woke up, woke up knowing, today is the day I will die
Cashdog was barking, walked in the park and, enjoyed it one last time

E|-3---3---4---4----------------------------
B|-4---4---6---6----------------------------
G|-5---5---6---6----------------------------
D|-5---5---6---6----------------------------
A|-3---3---4---4--------------------------
E|----------------------------------------
I called my mother, told her I loved her and I begged her not to cry

E|--4---6---4---4--
B|--4---8---6---4--
G|--5---8---6---5-- (This part is in verse one only,
D|--6---8---6---6--  on the second verse, skip this and go
A|--6---6---4---6-- straight to the pre chorus)
E|--4-----------4--
I wrote a letter, that said I'd miss her, And I signed that good bye

Pre Chorus-Rhythm Guitar
E|---6---4---6---4--------------------------
B|---8---6---8---6--------------------------
G|---8---6---8---6--------------------------
D|---8---6---8---6--------------------------
A|---6---4---6---4------------------------
E|-------------------------------------------
You know the happiest day of my life, I swear the happiest day of my life

Chorus-Both Guitars
E|--4---6---4---4---4---6---4---4-------------
B|--4---8---6---4---4---8---6---6-------------
G|--5---8---6---5---5---8---6---6-------------
D|--6---8---6---6---6---8---6---6-------------
A|--6---6---4---6---6---6---4---4-------------
E|--4-----------4---4----------------------
Can you feel the cold tonight, it sets in but, its alright
Darkness falls I'm letting go, all alone but I feel fine

Verse 2
Same as verse one

Pre-Chorus

Chorus

Solo-Rhythm Guitar
Same as intro Rhythm Guitar

Solo-Lead Guitar
E|--------------------------------------------------
B|--------------------------------------------2-1-----
G|-------------------------1------1-----1-1-1--------
D|---------------------1h3--1h3--1h3---3-1--------------
A|-3--3--3--1----1------------------------------
E|------4--------------------------------------

E|--------------------------------------
B|--------------------------------------
G|--------------------------------------
D|--------------------------------------
A|-3--3-4-3-1--1-1-1--4-3---------------
E|-------------------------------4-1-4---------

Pre Chorus

Chorus X2
	  

Search Paypal
auto scroll beats size up size down change color hide chords drawings
tab show chords e-chords YouTube Clip e-chords hide all tabs e-chords go to top tab