George Harrison

home > George Harrison

Bangla Desh Tab

George Harrison

Difficulty: nolevelnolevel

by educastilho

tuner correct add songbook print version text version save to e-mail
chordsukulelecavacokeyboardtabbassdrumsharmonicsflute Guitar Pro
chords

Bangla Desh

(George Harrison 1971)

  		
Tuning:
Gtr I (E A D G B E) 
Gtr II (E A E A C E) 
 
  Gtr I (Clean El. Gtr.) 
  W          W          W          W          W 
|----------:----------:----------:----------:------| 
|----------:----------:----------:----------:------| 
|----------:----------:----------:----------:------| 
|----------:----------:----------:----------:------| 
|----------:----------:----------:----------:------| 
|----------:----------:----------:----------:------| 


                                          Q=67 
 2/4    4/4 
  W      W          W          W          W 
|------:----------:----------:----------:------| 
|------:----------:----------:----------:------| 
|------:----------:----------:----------:------| 
|------:----------:----------:----------:------| 
|------:----------:----------:----------:------| 
|------:----------:----------:----------:------| 


  Q=40   Faster Q=98 
 2/4    4/4 
  W      W          W 
|------|----------|------|| 
|------|----------|------|| 
|------|----------|------|| 
|------|----------|------|| 
|------|----------|------|| 
|------|----------|------|| 


   1st - 3rd Verses 
    $ 
    N.C. 
    W          H    E S S S E. 
||-----------|-----------------| 
||o----------|--------1-----1--| 
||-----------|----------x-x----| 
||-----------|-----------------| 
||o----------|-----------------| 
||-----------|-----------------| 


  E E +S  E. E. S +E  E   +E  E +S  E. E. S +E  E 
|---0-(0)-1--0--------0-|-(0)-0-(0)----0--------0-| 
|---------------3-(3)---|-----------3-----3-(3)---| 
|-----------------------|-------------------------| 
|-----------------------|-------------------------| 
|-----------------------|-------------------------| 
|-----------------------|-------------------------| 


  E E +S  E. E. S +E  E   E E +S  E. E. S +E  S S 
|---0-(0)----1--0-(0)---|-------------------------| 
|---------3-----------3-|---3-(3)-1--3--1-(1)-3-3-| 
|-----------------------|-------------------------| 
|-----------------------|-------------------------| 
|-----------------------|-------------------------| 
|-----------------------|-------------------------| 


  E E +S  E. E. S +E  S S   E E +S  E. E. S +E  E 
|-------------------------|-----------------------| 
|---3-(3)-1--3--1-(1)-3-3-|---4-(4)----4--------4-| 
|-------------------------|---------5-----5-(5)---| 
|-------------------------|-----------------------| 
|-------------------------|-----------------------| 
|-------------------------|-4---------------------| 


  E. S +E  E S E. S S E   E E +S  E. E. S +E  E   +E  E +S  E. E. S +E  E 
|-----------------------|---0-(0)----0--------0-|-(0)-0-(0)----0--------0--| 
|---------------------4-|---------3-----3-(3)---|-----------3-----3-(3)----| 
|-------------------5---|-----------------------|--------------------------| 
|--------------4--6-----|-----------------------|--------------------------| 
|----3-(3)-6-6----------|-----------------------|--------------------------| 
|-4---------------------|-----------------------|--------------------------| 


                          1.                        2. 
                 To Coda 
  E E +S  E. E. S +E  E    E E +S  E. E. S +E  E     W 
|------------------------|---0-(0)----0--------0--||------|| 
|---3-(3)-1--3--1-(1)-3--|---------3-----3-(3)---o||------|| 
|------------------------|------------------------||------|| 
|------------------------|------------------------||------|| 
|------------------------|-----------------------o||------|| 
|------------------------|------------------------||------|| 


 Piano Solo 
  N.C. 
  W          W          W          W 
|----------|----------|----------|------| 
|----------|----------|----------|------| 
|----------|----------|----------|------| 
|----------|----------|----------|------| 
|----------|----------|----------|------| 
|----------|----------|----------|------| 


 Sax Solo 
  N.C. 
                                 Gtr II (El. Gtr. w/ slide - Am tuning: E A E A C E) 
  W          W          W           a  E.  S  +S   E.  S  E  S  S  S  e 
|----------|----------|----------|---------------------------------------| 
|----------|----------|----------|-12s15--14-(14)-12--15s12-------12-14--| 
|----------|----------|----------|--------------------------10s12--------| 
|----------|----------|----------|---------------------------------------| 
|----------|----------|----------|---------------------------------------| 
|----------|----------|----------|---------------------------------------| 


   a  Q.    S  S  Q.    E    a  E.  a  S  +E   a  E  +H 
|----------16-------------|-16s19--14s16-(16)---------------| 
|-14s16-------16s14----16-|-------------------14s16-(16)----| 
|-------------------------|---------------------------------| 
|-------------------------|---------------------------------| 
|-------------------------|---------------------------------| 
|-------------------------|---------------------------------| 


                       D.S. al Coda 
  W          H    E.  S  S S  S  S 
|----------|---------12s10-----------|| 
|----------|-----------------12s14---|| 
|----------|-------------------------|| 
|----------|-------------------------|| 
|----------|-------------------------|| 
|----------|-------------------------|| 


  & 
  N.C. 
  W          W          W          W 
|----------|----------|----------|------| 
|----------|----------|----------|------| 
|----------|----------|----------|------| 
|----------|----------|----------|------| 
|----------|----------|----------|------| 
|----------|----------|----------|------| 


  W          W          W          W 
|----------|----------|----------|------| 
|----------|----------|----------|------| 
|----------|----------|----------|------| 
|----------|----------|----------|------| 
|----------|----------|----------|------| 
|----------|----------|----------|------| 


             Guitar Solo 
              N.C. 
              w/ slide                  ~~                        ~~~ 
  W           E  a  E  +S   E.  Q  Q    E  a  E S  a  E.  E. S +S  S E 
|----------||-------------------------|---10s12------------------------| 
|----------||---12s14-(14)s12---------|-----------12s13------7-(7)---7-| 
|----------||------------------12-----|------------------12--------7---| 
|----------||-------------------------|--------------------------------| 
|----------||-------------------------|--------------------------------| 
|----------||-------------------------|--------------------------------| 


                                                            ~ 
  S E S +Q   +E  E Q    E a E q  H      E S S +S  S E S S E Q 
|---------------------|---------------|-------------------------| 
|-7s8-----------------|---7s8---------|---5s4-(4)-5s4-5s4-------| 
|-----7-(7)--(7)------|-------7-------|-------------------5-5---| 
|---------------------|---------------|-------------------------| 
|---------------------|---------------|-------------------------| 
|---------------------|---------------|-------------------------| 


                                   Bridge 
                                    N.C. 
  W          W          W           E  a  E  E.  S  E  E  E  E 
|----------|----------|----------||---16s17---------------------| 
|----------|----------|----------||---------16--14--------------| 
|----------|----------|----------||----------------15s14s15s14--| 
|----------|----------|----------||-----------------------------| 
|----------|----------|----------||-----------------------------| 
|----------|----------|----------||-----------------------------| 


   E  E Q  H      W          W 
|---------------|----------|------|| 
|---------------|----------|------|| 
|-17s15---------|----------|------|| 
|---------------|----------|------|| 
|---------------|----------|------|| 
|---------------|----------|------|| 


 Outro (Double Time Feel) 
  N.C. 
  W          W          W          W 
|----------|----------|----------|------| 
|----------|----------|----------|------| 
|----------|----------|----------|------| 
|----------|----------|----------|------| 
|----------|----------|----------|------| 
|----------|----------|----------|------| 


  W          W          W          W 
|----------|----------|----------|------*| 
|----------|----------|----------|------*| 
|----------|----------|----------|------*| 
|----------|----------|----------|------*| 
|----------|----------|----------|------*| 
|----------|----------|----------|------*| 
 
	  

Search Paypal
auto scroll beats size up size down change color hide chords drawings
tab show chords e-chords YouTube Clip e-chords hide all tabs e-chords go to top tab