Games

home > Games

Zelda's Lullaby (The Legend Of Zelda) Tab

Games

Difficulty: ExpertExpert

by Dferrugem

tuner correct add songbook print version text version save to e-mail
chordsukulelecavacokeyboardtabbassdrumsharmonicsflute Guitar Pro
chords

Zelda's Lullaby (The Legend Of Zelda)

  		Musica da zelda (Nintendo 64) 
 
e|-------------------5-3------------------------------- 
B|---3------3------3-----3----------------------------- 
G|-4---2--4---2--4---------5--4--3--------------------- 
D|----------------------------------------------------- 
A|----------------------------------------------------- 
E|----------------------------------------------------- 
 
e|--------------------------5--3--10------------------- 
B|----3------------3------3---------------------------- 
G|0-2---4-2--0-2-4---2--4------------------------------ 
D|----------------------------------------------------- 
A|----------------------------------------------------- 
E|----------------------------------------------------- 
 
e|--10-8-7-7h8-7----8-7-5-5h7------10-8-7-7h8-7---8--15 
B|---------------8------------8-5---------------8------ 
G|----------------------------------------------------- 
D|----------------------------------------------------- 
A|----------------------------------------------------- 
E|----------------------------------------------------- 
 
Depois repete tudo 

	  

Search Paypal
auto scroll beats size up size down change color hide chords drawings
tab show chords e-chords YouTube Clip e-chords hide all tabs e-chords go to top tab