Seriados e Desenhos

Bob Esponja

Seriados e Desenhos

tabs Beginner beginner

save to print version add songbook text version e-mail correct tuner
chordsukulelecavacokeyboardtabbassdrumsharmonicaflute Guitar Pro
close

there isn't a video lesson for this song

chords

Bob Esponja

	  		 
uh oh... 
--------------------|-7--6--7--9--7|----------|-7--6--7--9--7-------| 
--------------------|--------------|----------|---------------------| 
--------------------|--------------|----------|---------------------| 
------9~~-------9~~-|--------------|------9~~-|---------------------| 
-7~~-------7~~------|--------------|-7~~------|---------------------| 
--------------------|--------------|----------|---------------------| 
 
Some guitar in the backround hits the open B string a few times 
 
-------------| 
-0--0--0--0--| 
-------------| 
-------------| 
-------------| 
-------------| 
 
Back to this 
 
|-7--6--7--9--7|----------|-7--6--7--9--7-------| 
|--------------|----------|---------------------| 
|--------------|----------|---------------------| 
|--------------|------9~~-|---------------------| 
|--------------|-7~~------|---------------------| 
|--------------|----------|---------------------| 
 
The Timing for this Little chord riff is akward... 
probably a good idea to listen to the song 
-7--7|-14--16--14--16--14--|-12--12--12--12--14--15--15--15--14-------| 
-----|-14--16--14--16--14--|-12--12--12--12--14--15--15--15--14-------| 
-----|---------------------|------------------------------------------| 
-----|---------------------|------------------------------------------| 
-----|---------------------|------------------------------------------| 
-----|---------------------|------------------------------------------| 
 
-7--6--7--9--7-|------|-7--6--7--9--7--11--11sb12----------------| 
---------------|------|------------------------------------------| 
---------------|------|------------------------------------------| 
---------------|------|------------------------------------------| 
---------------|------|------------------------------------------| sb=slow bend 
---------------|-7~~--|------------------------------------------| 
		  

Full key step upFull key step up
Half key step upHalf key step up
Half key step downHalf key step down
Full key step downFull key step down
auto scroll beats size up size down change color hide chords drawings
tab show chords e-chords YouTube Clip e-chords hide all tabs e-chords go to top tab

share