Fidlar

Cocaine

Fidlar

tabs

by  JESSGOMES

save to print version add songbook text version e-mail correct tuner
chordsukulelecavacokeyboardtabbassdrumsharmonicaflute Guitar Pro
close

there isn't a video lesson for this song

chords

Cocaine

	  		Please give me some feed back ^-^  
FUCK IT DOG, LIFE'S A RISK 

Cocaine by FIDLAR 


Guitar I - Zac Carper 
Guitar II ? Elvis Kuehn 


Intro: 

Guitar I 
e|----------------------------------------------|      
B|----------------------------------------------|      
G|----------------------------------------------|      
D|----------------------------------------------| 
A|----7--7--7--7--5h6---7--7--7--7--5h6---------| 
E|--00-00-00-00-00----00-00-00-00-00------------| 

Guitar II 
e|----------------------------------------------|      
B|----------------------------------------------|      
G|----------------------------------------------|      
D|----------------------------------------------| 
A|----------------------------------------------| 
E|----------------------------------------------| 



Guitar I 
e|----------------------------------------------|      
B|----------------------------------------------|      
G|----------------------------------------------|      
D|----------------------------------5~----------| 
A|----7--7--7--7--5h6----7--7--7--7-------------| 
E|--00-00-00-00-00----00-00-00-00-00------------| 

Guitar II 
e|----------------------------------------------|      
B|----------------------------------------------|      
G|----------------------------------------------|      
D|----------------------------------------------| 
A|----------------------------------------------| 
E|----------------------------------------------| 



Guitar I 
e|----------------------------------------------|      
B|----------------------------------------------|      
G|----------------------------------------------|      
D|----------------------------------------------| 
A|----7--7--7--7--5h6---7--7--7--7--5h6---------| 
E|--00-00-00-00-00----00-00-00-00-00------------| 

Guitar II 
e|----------------------------------------------|      
B|--4^55555555p3h4----4^55555555p3h4------------|      
G|----------------------------------------------|      
D|----------------------------------------------| 
A|----------------------------------------------| 
E|----------------------------------------------| 



Guitar I 
e|----------------------------------------------|      
B|----------------------------------------------|      
G|----------------------------------------------|      
D|----------------------------------------------| 
A|----7--7--7--7--5h6---7--7--7--7--5h6---------| 
E|--00-00-00-00-00----00-00-00-00-00------------| 

Guitar II 
e|----------------------------------------------|      
B|--4^55555555p3h4----4^55555555p3h4------------|      
G|----------------------------------------------|      
D|----------------------------------------------| 
A|----------------------------------------------| 
E|----------------------------------------------| 


Guitar I 
e|----------------------------------------------|      
B|----------------------------------------------|      
G|----------------------------------------------|      
D|----------------------------------------------| 
A|----7--7--7--7--5h6---7--7--7--7--5h6---------| 
E|--00-00-00-00-00----00-00-00-00-00------------| 

Guitar II 
e|----------------------------------------------|      
B|--4^55555555p3h4----4^55555555p3h4------------|      
G|----------------------------------------------|      
D|----------------------------------------------| 
A|----------------------------------------------| 
E|----------------------------------------------| 



Guitar I 
e|----------------------------------------------|      
B|----------------------------------------------|      
G|----------------------------------------------|      
D|----------------------------------------------| 
A|----7--7--7--7--5h6---7--7--7?7~--------------| 
E|--00-00-00-00-00----00-00-00-00---------------| 

Guitar II 
e|----------------------------------------------|      
B|--4^55555555p3h4----4^55555555~---------------|      
G|----------------------------------------------|      
D|----------------------------------------------| 
A|----------------------------------------------| 
E|----------------------------------------------| 



verse 1: 

Both Guitars 
e|----------------------------------------------|      
B|----------------------------------------------|      
G|------99999/12\999999p7h8---------------------|      
D|------99999/12\999999p7h8---------------------| 
A|------77777/10\777777p5h6---------------------| 
E|----------------------------------------------| x4 
(Guitar I lets it ring on last bar) 



verse 2: 

Guitar II 
e|----------------------------------------------|      
B|----------------------------------------------|      
G|----------------------------------------------|      
D|----------------------------------------------| 
A|----7--7--7--7--5h6---7--7--7--7--5h6---------| 
E|--00-00-00-00-00----00-00-00-00-00------------| x3 

Guitar II 
e|----------------------------------------------|      
B|----------------------------------------------|      
G|----------------------------------------------|      
D|----------------------------------------------| 
A|----7--7--7--7--5h6---7--7--7?7~--------------| 
E|--00-00-00-00-00----00-00-00-00---------------| 



Chorus: 

Both Guitars 
e|----------------------------------------------|      
B|----------------------------------------------|      
G|------99999/12\999999p7h8---------------------|      
D|------99999/12\999999p7h8---------------------| 
A|------77777/10\777777p5h6---------------------| 
E|----------------------------------------------| x4 
(Guitar I lets it ring on last bar) 



verse 3: 

Guitar I 
e|----------------------------------------------|      
B|----------------------------------------------|      
G|~~--------------------------------------------|      
D|~~--------------------------------------------| 
A|~~--------------------------------------------| 
E|----------------------------------------------| 

Guitar II 
e|----------------------------------------------|      
B|----------------------------------------------|      
G|----------------------------------------------|      
D|----------------------------------------------| 
A|----7--7--7--7--5h6---7--7--7--7--5h6---------| 
E|--00-00-00-00-00----00-00-00-00-00------------| x2 



Guitar I 
e|----------------------------------------------|      
B|----------------------------------------------|      
G|9~~-------------------------------------------|      
D|9~~-------------------------------------------| 
A|7~~-------------------------------------------| 
E|----------------------------------------------| 

Guitar II 
e|----------------------------------------------|      
B|----------------------------------------------|      
G|----------------------------------------------|      
D|----------------------------------------------| 
A|----7--7--7--7--5h6---7--7--7--7--5h6---------| 
E|--00-00-00-00-00----00-00-00-00-00------------| x2 



Guitar I 
e|----------------------------------------------|      
B|----------------------------------------------|      
G|9~~-------------------------------------------|      
D|9~~-------------------------------------------| 
A|7~~-------------------------------------------| 
E|----------------------------------------------| 

Guitar II 
e|----------------------------------------------|      
B|----------------------------------------------|      
G|----------------------------------------------|      
D|----------------------------------------------| 
A|----7--7--7--7--5h6---7--7--7--7--5h6---------| 
E|--00-00-00-00-00----00-00-00-00-00------------| x2 



Guitar I 
e|----------------------------------------------|      
B|----------------------------------------------|      
G|9~~-------------------------------------------|      
D|9~~-------------------------------------------| 
A|7~~-------------------------------------------| 
E|----------------------------------------------| 

Guitar II 
e|----------------------------------------------|      
B|----------------------------------------------|      
G|----------------------------------------------|      
D|----------------------------------------------| 
A|----7--7--7--7--5h6---7--7--7--7--5h6---------| 
E|--00-00-00-00-00----00-00-00-00-00------------|  



Guitar I 
e|----------------------------------------------|      
B|----------------------------------------------|      
G|9~~-------------------------------------------|      
D|9~~-------------------------------------------| 
A|7~~-------------------------------------------| 
E|----------------------------------------------| 

Guitar II 
e|----------------------------------------------|      
B|----------------------------------------------|      
G|----------------------------------------------|      
D|----------------------------------------------| 
A|----7--7--7--7--5h6---7--7--7--7~-------------| 
E|--00-00-00-00-00----00-00-00-00--------------- 



Chorus:  

Both Guitars 
e|----------------------------------------------|      
B|----------------------------------------------|      
G|------99999/12\999999p7h8---------------------|      
D|------99999/12\999999p7h8---------------------| 
A|------77777/10\777777p5h6---------------------| 
E|----------------------------------------------| x4 



Solo: 

Guitar I 
e|----------------------------------------------|      
B|----------------------------------------------|      
G|------99999999999999p7h8----------------------|      
D|------99999999999999p7h8----------------------| 
A|------77777777777777p5h6----------------------| 
E|----------------------------------------------|  
                                                  x4 
e|----------------------------------------------|      
B|----------------------------------------------|      
G|------99999/12\999999p7h8---------------------|      
D|------99999/12\999999p7h8---------------------| 
A|------77777/10\777777p5h6---------------------| 
E|----------------------------------------------|  

Guitar II  
(working on solo) 



Chorus:  

Both Guitars 
e|----------------------------------------------|      
B|----------------------------------------------|      
G|------99999/12\999999p7h8---------------------|      
D|------99999/12\999999p7h8---------------------| 
A|------77777/10\777777p5h6---------------------| 
E|----------------------------------------------| x4 



Outro: 

Both Guitars 
e|----------------------------------------------|      
B|----------------------------------------------|      
G|9~~-------------------------------------------|      
D|9~~-------------------------------------------| 
A|7~~-------------------------------------------| 
E|----------------------------------------------| 
		  

See also:

tabs Chickenfoot - Dubai Blues tabs Chickenfoot - Last Temptation tabs Chickenfoot - No Change tabs Kylesa - Unknown Awareness tabs Kylesa - To Walk Alone
e-chords

Other versions:

tabs The Cruel Sea - Cocaine tabs Fidlar - Cocaine tabs Eric Clapton - Cocaine (tab) tabs Eric Clapton - Cocaine (ver. 2) tabs Townes Van Zandt - Cocaine Blues tabs Johnny Cash - Cocaine Blues (live)
auto scroll beats size up size down change color hide chords drawings
tab show chords e-chords YouTube Clip e-chords hide all tabs e-chords go to top tab

share