Games

home > Games

Song of Storms (The Legend Zelda) Tab

Games

Difficulty: AdvancedAdvanced

by lassery

tuner correct add songbook print version text version save to e-mail
chordsukulelecavacokeyboardtabbassdrumsharmonicsflute Guitar Pro
chords

Song of Storms (The Legend Zelda)

  		
e|-----------------0-1-0-1-0----------------------------  
B|-----3--------3--------------1------------------------    
G|--------------------------------2---2-------2-2-------  
D|-0-3------0-3-------------------------0-2-3----0-2-3-2  
A|------------------------------------------------------  
E|------------------------------------------------------  
  
e|-----------------0-1-0-1-0----------------------------  
B|-----3--------3--------------1------------------------    
G|--------------------------------2---2-------2-2-------  
D|-0-3------0-3-------------------------0-2-3-----0-----  
A|------------------------------------------------------  
E|------------------------------------------------------  

	  

Search Paypal
auto scroll beats size up size down change color hide chords drawings
tab show chords e-chords YouTube Clip e-chords hide all tabs e-chords go to top tab