Gabriel Duarte

Pra Onde Irei

Gabriel Duarte

tabs

by  GUSTSILVA

save to print version add songbook text version e-mail correct tuner
chordsukulelecavacokeyboardtabbassdrumsharmonicaflute Guitar Pro
close

there isn't a video lesson for this song

chords

Pra Onde Irei

	  		Intro: 
 
E|--x---x---x---xx---x--x--x--x--x---x| 
B|--5---12--7---7h8--7--3--5--3--7---5| 
G|--x---x---x---xx---x--x--x--x--x---x| 
D|--X---X---x---XX---X--X--X--X--X---x| 
A|--3---10--5---5h7--5--2--3--2--5---3| 
E|------------------------------------| 
 

 
E|---x---x---xx---x--x--x--x--x---x| 
B|---12--7---7h8--7--3--5--3--7---5| 
G|---x---x---xx---x--x--x--x--x---x| 
D|---X---x---XX---X--X--X--X--X---x| 
A|---10--5---5h7--5--2--3--2--5---3| 
E|---------------------------------| 
 
          G 
Pra onde irei 
                       D11/F# 
Se só tua presença me basta? 
                     Am 
Se só teu amor me atrai? 
G/B C9                D4 
Jesus, amado da minha alma 

 
E|--x---x---x--| 
B|--5---12--7--| 
G|--x---x---x--| 
D|--X---X---x--| 
A|--3---10--5--| 
E|-------------| 
 


         C9  G  D11/F# 
Amado Jesuuuuuuuus 
         C/E  G/B  D11/F# 
Amado Jesuuuuuuuus 


  Forma do D4 
E|-5-| 
B|-3-| 
G|-0-| 
D|-4-| 
A|-5-| 
E|---| 
		  

Full key step upFull key step up
Half key step upHalf key step up
Half key step downHalf key step down
Full key step downFull key step down
hide glossary

See also:

tabs Oficina G3 - A Lição tabs Atmosfera de Adoração - Aleluia tabs Fernanda Brum - Espírto Santo tabs Aline Barros - sonda-me, usa-me tabs Lázaro - Eu Te Amo Tanto tabs Oficina G3 - A Lição (versão detalhada)
e-chords

Other versions:

tabs Gabriel Duarte - Pra Onde Irei
auto scroll beats size up size down change color hide chords drawings
tab show chords e-chords YouTube Clip e-chords hide all tabs e-chords go to top tab

share