Fuel

Wont Back Down

Fuel

tabs Expert expert

save to print version add songbook text version e-mail correct tuner
chordsukulelecavacokeyboardtabbassdrumsharmonicaflute Guitar Pro
close

there isn't a video lesson for this song

chords

Wont Back Down

	  		What a great song.  Haven't seen any tabs for this yet, so I thought since I already
knew how to play the song, I'd crank one out real quick. 
 
Tuning:  Drop D 
 
Intro 
e----- 
B----- 
G----- 
D-x-x- 
A-x-x- 
D-1-1- 
 
Main Riff/Chorus 
e--------------------------------- 
B--------------------------------- 
G--------------------------------- 
D-10---8-6---8---3-3-X-3-3--3-3/1- 
A-10---8-6---8---3-3-X-3-3--3-3/1- 
D-10---8-6---8---3-3-X-3-3--3-3/1- 
 
Verse 
(last two lines only) 
e--------------------------- 
B--------------------------- 
G--------------------------- X2 
D--------------------------- 
A--------------------------- 
D-10-8-6-6-3-6-6-8-10/12/10- 
     p a l m  m u t e d 
 
Bridge 
e------------- 
B------------- 
G------------- 
D-6---1--8--6- X3  For the last time through, hold the note 
A-6---1--8--6- 
D-6---1--8--6- 
 
Breakdown - First note is the lead in note 
e------------------ 
B------------------ 
G------------------ 
D-8----1-1-1-1-6-6- 
A-8----1-1-1-1-6-6- 
D-8----1-1-1-1-6-6- 
 
I'VE COME TO BRING YOU HELL! 
e------- 
B------- 
G------- 
D-10--6-  Repeat through end 
A-10--6- 
D-10--6- 
 
STRUCTURE: 
Intro 
Main Riff x 2 
Verse 
Main Riff x 2 
Verse 
Main Riff x 2 
Bridge 
Breakdown 
Main Riff x 2 
I'VE COME TO BRING YOU HELL! 
 

		  

Full key step upFull key step up
Half key step upHalf key step up
Half key step downHalf key step down
Full key step downFull key step down
hide glossary

See also:

tabs Fuel - Sunburn tabs Bush - Everything zen tabs Arctic Monkeys - Knee Socks tabs Tracy Chapman - Give Me One Reason tabs Arctic Monkeys - All My Own Stunts tabs Oasis - She´s Electric
e-chords

Other versions:

tabs Fuel - Wont Back Down tabs Fuel - Wont Back Down (ver. 2)
auto scroll beats size up size down change color hide chords drawings
tab show chords e-chords YouTube Clip e-chords hide all tabs e-chords go to top tab

share