Fuel

Wont Back Down

Fuel

bass

by  FERNSANTANA

save to print version add songbook text version e-mail correct tuner
chordsukulelecavacokeyboardtabbassdrumsharmonicaflute Guitar Pro
close

there isn't a video lesson for this song

chords

Wont Back Down

	  		Intro 

G|-----------------------------------------| 
D|-----------------------------------------| 
A|-0/x----0/x----0/x-------00000000-3/0----| 
D|-0/x----0/x----0/x-------00000000-3/0----| 

"Yeahhhhhhhh" 

G|----------------------------------------------------------| 
D|----------------------------------------------------------| 
A|-0-0-0-0-3/10--8-8-8-8-8-10-10-10-10-10-55-5-5-5-3--------| 
D|-0-0-0-0-3/10--8-8-8-8-8-10-10-10-10-10-55-5-5-5-3--------| 
repeat once 

Primeira Parte 

G|------------------------------------------| 
D|------------------------------------------| 
A|------------------------------------------| 
D|-0-10-9-8-7-0-7--3/5-5/3------------------| 

"Im coming for you" 

Refrão 1 
"I wont back down" 

G|-----------------------------------------------------| 
D|-----------------------------------------------------| 
A|-0-0-0-0-3/10--8-8-8-8-8-10-10-10-10-10-55-5-5-5-3---| 
D|-0-0-0-0-3/10--8-8-8-8-8-10-10-10-10-10-55-5-5-5-3---| 

Segunda Parte 

G|------------------------------------------| 
D|------------------------------------------| 
A|------------------------------------------| 
D|-0-10-9-8-7-0-7--3/5-5/3------------------| 
"Im coming for you" 

Refrão 2 

"I wont back down" 

G|-----------------------------------------------------| 
D|-----------------------------------------------------| 
A|-0-0-0-0-3/10--8-8-8-8-8-10-10-10-10-10-55-5-5-5-3---| 
D|-0-0-0-0-3/10--8-8-8-8-8-10-10-10-10-10-55-5-5-5-3---| 

G|----------------------------------------------------------| 
D|----------------------------------------------------------| 
A|-0-0-0-0-3/10--8-8-8-8-8-10-10-10-10-10-5555555-3/8-------| 
D|-0-0-0-0-3/10--8-8-8-8-8-10-10-10-10-10-5555555-3/8-------| 

"All the scars that never heal" 

G|----------------------------------------------------------| 
D|----------------------------------------------------------| 
A|-888888-777-1010101010------------------------------------| 
D|-888888-777-1010101010------------------------------------| 3x 

"These memories never fall" 
G|----------------------------------------------------------| 
D|----------------------------------------------------------| 
A|-88888-10-10-10-10-10-10----------------------------------| 
D|-88888-10-10-10-10-10-10----------------------------------| 

G|----------------------------------------------------------| 
D|----------------------------------------------------------| 
A|-0-0-0-0-0-0-0-8~-----------3-3-3-3-55-3--3-3-3-55--------| 
D|-0-0-0-0-0-0-0-8~-----------3-3-3-3-55-3--3-3-3-55--------| 

Refrão 3 

"I wont back down" 

G|-----------------------------------------------------| 
D|-----------------------------------------------------| 
A|-0-0-0-0-3/10--8-8-8-8-8-10-10-10-10-10-55-5-55-3----| 
D|-0-0-0-0-3/10--8-8-8-8-8-10-10-10-10-10-55-5-55-3----| 

G|----------------------------------------------------------| 
D|----------------------------------------------------------| 
A|-0-0-0-0-3/10--8-8-8-8-8-10-10-10-10-10-5555555-3---------| 
D|-0-0-0-0-3/10--8-8-8-8-8-10-10-10-10-10-5555555-3---------| 

"I've come to bring you hell" 
G|------------------------------| 
D|------------------------------| 
A|-8-8-8-8/10-10-10-10-10-------| (4x) 
D|-8-8-8-8/10-10-10-10-10-------| 

I know what darkness means 
(and the void you learned from me) 
The isolation steams 
(So I think it wants to bleed) 
The echoes in my brain 
(All the things you said to me) 
You took my everything 
Now I'm coming for you! 

I won't back down 
I will not bow 
I've come to bring you hell 
I can't forget 
Things you did 
I've come to bring you hell 

The shadows that you see 
(In the places that you sleep) 
Are memories of me 
(Better pray your soul to keep) 
The truth behind your eyes 
(You know the thing you never see) 
Your darkest little lies 
I'm coming for you! 

All the scars that never heal 
All the wounds that will not seal 
I will not forget the day 
These memories never fall 

I've come to bring you hell 
(I've come to bring you hell) 
		  

See also:

bass Arctic Monkeys - Fluorescent Adolescent bass Fuel - Shimmer (ver. 2) bass Faith no More - What A Day bass Faith no More - Helpless (ver. 2) bass Faith no More - We Care Alot bass Faith no More - We Care A Lot
e-chords

Other versions:

bass Fuel - Wont Back Down
auto scroll beats size up size down change color hide chords drawings
tab show chords e-chords YouTube Clip e-chords hide all tabs e-chords go to top tab

share